Song name
# A B C D E F G H I J K L M N O P Q R S T U V W X Y Z

Julian Smith - Jellyfish tab

Intro:
E----------------------------------------------------------------------|
B----------------------------------------------------------------------|
G----------------------------------------------------------------------|
D----------------------------------------------------------------------|
A---------------------------10-10-----10------------10-10----10--------|
E---8-8-8-8--8--8-----8-8---------8----------8-8-----------8-----------|

E----------------------------------------------------------------------|
B----------------------------------------------------------------------|
G----------------------------------------------------------------------|
D----------------------------------------------------------------------|
A-----------10-10--------10-----------------9-9------9-----------------|
E---11--11-----------11-----------10--10---------10--------------------|

Verse:

E---------------------------------------------------------------------|
B---------------------------------------------------------------------|
G---------------------------------------------------------------------|
D---------------------------------------------------------------------|
A-------------------------------------------10------------------------|
E-8-8-----8-8----8--11----8-8-----8-8-------8-------------------------|

Chorus:
       x2
E--------------------   ---------------------------------------------------|
B--------------------   ---------------------------------------------------|
G--------------------   ---------------------------------------------------|
D--------------------   ---------------------------------------------------|
A------10-10-----10--   -----------------10-10----10-------------9-9-----9-|
E-8-8---------8------   ----------11-11--------11----------10-10------10---|

you will do this twice... its suttle but it could take your life


Outro:

E------------------------------------------------------------------------|
B------------------------------------------------------------------------|
G------------------------------------------------------------------------|
D------------------------------------------------------------------------|
A---------10-10---10--------10-10------10--------------10-10----10-------|
E----8-8--------8--------8-8---------8-----------11-11--------11---------|

Order:
Intro
Verse
Chorus
Verse
Chorus
Ourto
Tap to rate this tab
 
# A B C D E F G H I J K L M N O P Q R S T U V W X Y Z