Song name
# A B C D E F G H I J K L M N O P Q R S T U V W X Y Z

Julian Smith - Jellyfish tab

Here's the correct tab for the song. I've been ear-translating this for the longest time 
and it sounds exactly the song. This all the song is, but once you get near the "And 
you'll die" part just play the 9th fret on the E string like the beginning of the song. Enjoy!




e|-----------------|-----------------|-----------------|------------------|
B|-----------------|-----------------|-----------------|------------------|
G|-----------------|-----------------|-----------------|------------------|
D|-----------------|-----------------|-----------------|------------------|
A|-----------------|------10-10----10|------10-10----10|-------10-10----10|
E|-9-9---9-9----9-9|-9-9--------9----|-9-9--------9----|-12-12-------12---|

e|-----------------|
B|-----------------|
G|-----------------|
D|-----------------|
A|--------8-8-----8|
E|-10-10------10---|
Tap to rate this tab
# A B C D E F G H I J K L M N O P Q R S T U V W X Y Z