Song name
# A B C D E F G H I J K L M N O P Q R S T U V W X Y Z

Julian Smith - Back Then chords

Highlighted       Show chord diagrams
C           F          G
Show me the light, the picture
C           F       G
I'll try my best to see
C              F     G
What happened to us, baby
C          F    G
I paused my memories

E|----------------------|----------------------|
A|----------------------|----------------------|
D|----------------------|----------------------|
G|----------------------|----------------------|
B|--3-3-3-3-3-3--3--3---|-3-3-3-3-3-3--3--3----|
E|-2-2-2-2-2-2-3--3-----|--2-2-2-2-2--3--3-----|

C   F               G
I understand you're worried
C        F           G
This doesn't feel the same
C           F
But I won't give up
C       F
I won't give up
C        F          G
I'll try my best to see
C                F
I don't wanna be sorry
C              F
I don't wanna give in
C                     F                     G
I just wanna remember what it was like back then
C                        F
I'm with you all the way out
C               F
But all the way in
C                     F                     G
I just wanna remember what it was like back then


E|----------------------|----------------------|
A|----------------------|----------------------|
D|----------------------|----------------------|
G|----------------------|----------------------|
B|--3-3-3-3-3-3--3--3---|-3-3-3-3-3-3--3--3----|
E|-2-2-2-2-2-2-3--3-----|--2-2-2-2-2--3--3-----|

E|----------------------|----------------------|
A|----------------------|----------------------|
D|----------------------|----------------------|
G|----------------------|----------------------|
B|--3-3-3-3-3-3--3--3---|-3-3-3-3-3-3--3--3----|
E|-2-2-2-2-2-2-3--3-----|--2-2-2-2-2--3--3-----|

C   F               G
I understand you're worried
C        F            G
This doesn't feel the same
C           F
But I won't give up
C        F
I'll try my best
C       F
I won't give up
C        F
I'll try my best
C       F
I won't give up
C                F                  G
I'll try my best to see, to see, to see
C                F
I don't wanna be sorry
C              F
I don't wanna give in
C                     F                     G
I just wanna remember what it was like back then
C                        F
I'm with you all the way out
C              F
But on the way in
C                     F                     G
I just wanna remember what it was like back then

E|----------------------|----------------------|
A|----------------------|----------------------|
D|----------------------|----------------------|
G|----------------------|----------------------|
B|--3-3-3-3-3-3--3--3---|-3-3-3-3-3-3--3--3----|
E|-2-2-2-2-2-2-3--3-----|--2-2-2-2-2--3--3-----|


Keep playing that tab until the end


Tap to rate this tab
# A B C D E F G H I J K L M N O P Q R S T U V W X Y Z