Song name
# A B C D E F G H I J K L M N O P Q R S T U V W X Y Z

Julian Smith - Cold Inside tab

So First of all I don't actually know the whole song, just the real starting part, 
once I do learn the rest, I will be sure to put it up.

e|-----------4-------------|
B|-----5-------------------|
G|--4-----4----------------| (x3)  
D|-------------------------|    Make like a D shape on the 4th fret
A|-------------------------|
E|-------------------------|

e|-----5-----4-------------|
B|-------------------------|
G|--4-----4----------------|
D|-------------------------|
A|-------------------------|
E|-------------------------|

Because I did such a lousy job with this song, here's a few ways to play it:

e|-----------9-------------|
B|-----9-------------------|
G|--9-----9----------------| (x3)
D|-------------------------|    Make like an A shape on the 9th fret
A|-------------------------|
E|-------------------------|

e|-------------------------|
B|-----10-----9------------|
G|-------------------------|
D|--9------9---------------|
A|-------------------------|
E|-------------------------|

And another way :)

e|-------------------------|
B|-------------------------|
G|--------------13---------| (x3)
D|------14-----------------|   Make like an Am shape on the 13th fret
A|--14------14-------------|
E|-------------------------|
Tap to rate this tab
# A B C D E F G H I J K L M N O P Q R S T U V W X Y Z