Guitaretab - guitar tabs
Song name
# A B C D E F G H I J K L M N O P Q R S T U V W X Y Z

Juliana Hatfield - I Got No Idols tab

#----------------------------------PLEASE NOTE---------------------------------#
#This file is the author's own work and represents their interpretation of the #
#song. You may only use this file for private study, scholarship, or research. #
#------------------------------------------------------------------------------##
 jamesb@nevada.edu
Message-id: <01H9NQ81A6MA8Y5YCT@citadel.edu>
X-VMS-To: IN%"jamesb@nevada.edu"
MIME-version: 1.0
Content-type: TEXT/PLAIN; CHARSET=US-ASCII
Content-transfer-encoding: 7BIT


                        I Got No Idols
                                               Juliana Hatfield

   Everything is tuned down a whole step

   Intro and Chorus
[ Tab from: http://www.guitaretab.com/j/juliana-hatfield/125544.html ]
E---0--0----3--3--3----5--5----3--3--3-|
B---0--0----3--3--3----5--5----3--3--3-|
G---1--1----4--4--4----6--6----4--4--4-|
D---2--2----5--5--5----7--7----5--5--5-|
A---2--2----5--5--5----7--7----5--5--5-|
E---0--0----3--3--3----5--5----3--3--3-|

            play after intro and during verses

 E--------0---------------------5---------------------------|
 B----------0---------------------5-------------------------|
 G--1-------------------------------------------------------|
 D--2--2------------------------------5---7---7--7---5---8--|
 A--2--2------5-5-5-4-2----2/5--------5---7---7--7---5---8--|
 E--0--0------------------------------3---5---5--5---3---6--|

 thats about all...This is the first time i've typed this out something out
 so it might not be exact.  But its really easy to get it right if you just
 play along with the CD.

 Ricky Cancro
Related for I Got No Idols tab
I Got No Idols chords by Juliana Hatfield