Guitaretab - guitar tabs
Song name
# A B C D E F G H I J K L M N O P Q R S T U V W X Y Z

Juliana Hatfield - I See You tab

F#sus7

Bsus4            Aadd9  A7sus2     Bsus4         Aadd9  A7sus2
What's that over there             moving on the wall
Bsus4       Aadd9               F#7sus4      F#7add11
   A second glance and it's not there at all
Bsus4               Aadd9  A7sus2         Bsus4      Aadd9  A7sus2
What's that sitting there          on the page of my book
   Bsus4            Aadd9        F#7sus4               F#7add11
It hides behind the words when I try to take a closer look

G7                                    F#7
    I can't reach out and grab it but that's ok with me

What's that jumping up and down in the middle of the street
It lingers then it melts into the wavy liquid heat
What are all those dizzy circles in the corner of my eye
They laugh and float away as I look into the sky

G7                               Em7                     Em9
 Can't get my arms around it but that doesn't bother me
G7                        F#7      F#7add11
  Cos all I have to do is dream

Bsus4 F#7add11           Asus2/F#   Bsus4/G#    E    Esus4   E
I see you                every      place     I go
Bsus4  F#7add11          Asus2/F#  Bsus4/G#   E    Esus4   E
I see  you in            people I  don't even know
  B5       B/G#(no3)  F#sus4(no5)
I close my eyes and   I see you
  B5       B/G#(no3)  F#sus4(no5)    B5  B/G#(no3)  F#sus4(no5)
I open 'em wide and   I see you
E     Asus2
I see you

Who am I to close my mind from what it wants to see
And who are you to tell the truth and kill my fantasy
Why are all those people always saying things about me
I'm not a loser, I'm just lonely
		
Yeah I wanna lay down next to you	
But I'm not one to complain		
Yeah I wanna touch you too		
[ Tab from: http://www.guitaretab.com/j/juliana-hatfield/165011.html ]
Bridge:				
|-------------------------------------------------|
|-----------0---------------------0---------------|
|--------4------4-----4--------4-----4-----4------|
|-----4------------4--------4-----------4---------|
|--2---------------------0------------------------|
|-------------------------------------------------|

|-------------------------------------------------|
|-----------0---------------------0---------------|
|--------4------4-----4--------4------4-----4-----|
|-----4------------4--------4------------4--------|
|-------------------------------------------------|
|--3---------------------0------------------------|
+ First bar one more time  +
	                   1st time     2nd time (strum)
|-----------------------|-----------0-|------0----|
|-----------0-----------|---------0---|------0----|
|--------4------4-----4-|------2------|------3----|
|-----4------------4----|---2---------|------4----|
|-----------------------|0------------|------4----|
|--2--------------------|-------------|-2-2--2----|
(Repeat the above bars twice)

Do me a favor and appease my aching eyes	
Won't you please materialize		
Play another of your tricks with my sight	
Be here in the flesh tonight		
				
What's that pretty little thing crawling up my wrist
Call me crazy, call me a masochist
But I'd rather have you in my mind than completely out of sight
So I'll just go on dreaming for the rest of my life
				
I see you every night and day		
I see you in a million different ways	
				
I close my eyes and I see you		
I open 'em wide and I see you		
Yeah, I see you 
(End on Bsus2)	

Chords used:
==============
F#sus7: 242422
Bsus4: x24400
Aadd9: 577600
A7sus2: 577000
F#7add11: 244300
G7: 353433 
F#7: 242322
Em7: 022030
Em9: 020032
Asus2/F#: 2x2200
Bsus2: x24422
Bsus4/G#: 4x4400
E: 022100
Esus4: 022200
B5: x244xx
B/G#(no3): 4x44xx
F#sus4(no3): 2x44xx


-- o --
Related for I See You tab
Advertisement will be closed in 10 seconds