Song name
# A B C D E F G H I J K L M N O P Q R S T U V W X Y Z

Juliana Hatfield - I Got No Idols tab

Song: I Got No Idols
Album: Become What You Are

Tabbed by: dkeenan

Tuning: Standard

*e-mail me at xraptor1147@aim.com or message me on UG for any questions or clarifications*


Intro:

e|------------------------|
B|------------------------|
G|-7--7-------------------|
D|-7--7---3-3--5--5---3-3-|
A|-5--5---3-3--5--5---3-3-|
E|--------1-1--3--3---1-1-|


Verse:

e|-------2--2--------------------3-3---------------|
B|-3--3--3--3--3-----------------3-3---------------|
G|-2--2--2--2--2-----------------0-0---------------|
D|-0--0--0--0--0-----------------0-0--3/5--5-5-3/6-|
A|-0--0-----------3-2-0---0-2-3--3-3--3/5--5-5-3/6-|
E|-------------------------------0-0--1/3--3-3-1/4-|


Chorus:

e|------------------------|
B|------------------------|
G|-7--7-------------------|
D|-7--7---3-3--5--5---3-3-|
A|-5--5---3-3--5--5---3-3-|
E|--------1-1--3--3---1-1-|


You have to listen to the song for how many times to play a part. Sometimes in the verse
she will skip the Cadd9 and repeat the power chords. Sometimes the strumming will hit
certain strings in chords, etc, so you may have to improvise, but this is the basic 
meat. Its all the ears.


Have fun, its a great song.
Tap to rate this tab
# A B C D E F G H I J K L M N O P Q R S T U V W X Y Z