Guitaretab - guitar tabs
Song name
# A B C D E F G H I J K L M N O P Q R S T U V W X Y Z

Juliana Theory - Into The Dark tab

WWW.THEJULIANATHEORY.COM

Title:  Into the Dark
Artist:  The Juliana Theory
Album: "Emotion is Dead" and "Love"
Tabbed: Buddy Chum AKA Mike
Tuning: Standard

Verses1&2:
e--------------------------------------
B--------------------------------------
G--------------7-7---------------5-5--- repeat 4X
D--7-7---7-7---7-7---8-8---8-8---5-5---
A--7-7---7-7---5-5---8-8---8-8---3-5---
E--5-5---5-5---------6-6---6-6---------

Chorus: repeat 2X
Bb           Bb        F             C
In your eyes I see the darkness that torments you
Dm          Am            Bb       Bb
and in your head where it dwells            
Bb            Bb          F             C
I gave you my hand if you reach out and grab it
     Dm     Am           Bb     Bb 
lets walk away from this hell.....

Bridge: 
e-----------------------------------------
B-----------------------------------------
G-333-555-777-101010-----555-777-5-7------
D-333-555-777-101010-888-555-777-5-7-7-8--
A-111-333-555--8-8-8-888-333-555-3-5-7-8--
E--------------------666-------------5-6--
[ Tab from: http://www.guitaretab.com/j/juliana-theory/122261.html ]
e--------------------
B--------------------
G-333-555-777-101010- repeat 3X
D-333-555-777-101010-
A-111-333-555--8-8-8-
E--------------------

e-----------------------------------------
B-----------------------------------------
G-333-555-777-101010-----555-777-5-7------
D-333-555-777-101010-888-555-777-5-7-7-8--
A-111-333-555--8-8-8-888-333-555-3-5-7-8--
E--------------------666-------------5-6--

Chorus: repeat 2X
Bb           Bb        F             C
In your eyes I see the darkness that torments you
Dm          Am            Bb       Bb
and in your head where it dwells            
Bb            Bb          F             C
I gave you my hand if you reach out and grab it
     Dm     Am           Bb     Bb 
lets walk away from this hell.....

Outro:
e----------
B----------
G-5-7------ repeat 5X
D-5-7-7-8--
A-3-5-7-8--
E-----5-6--

Chords:
  Bb  F  C Dm Am
e--6--1--3--5--5---
B--6--1--5--6--5---
G--7--2--5--7--5---
D--8--3--5--7--7---
A--8--3--3--5--7---
E--6--1--3--5--5---

Note:  I've tried so hard to look for this tabbing online
and it was no where to be found, so I tabbed this for people
like me.
P.S. This is such an awesome band if anyone knows some tabs
please post it thanx.
Related for Into The Dark tab
Advertisement will be closed in 10 seconds