Song name
# A B C D E F G H I J K L M N O P Q R S T U V W X Y Z

Juliana Theory - Goodnight Starlight tab

----------------------------------------------------------------------------
		 Goodnight Starlight - The Juliana Theory
----------------------------------------------------------------------------
Tabbed by:AsAprilFalls
Email:breakandbleed2@hotmail.com

Tuning:Standard

This is another way I play it, I'm not sure which one sounds closest to the song though.

e|-------------------------------------------------------------------------|
B|-------------------------------------------------------------------------|
G|-10-11-------------------------------------------------------------------|
D|--------11--11-11-11--9-8-9-8---8----------------------------------------|
A|------------------------------9---9--9/11--9-11-9-11--11-9-14-13-11-13-11|
E|-------------------------------------------------------------------------|

e|-------------------------------------------------------------------------|
B|----------------------------------------------------------12-11-9--------|
G|------10-11-------------------------------------------------------11-----|
D|------------11--11-11-11--9-8-9-8---8------------------------------------|
A|-9--------------------------------9---9--9/11--9-11-9-11-----------------|
E|-------------------------------------------------------------------------|

e|-------------------------------------------------------------------------|
B|-12-11-9-11-9-----------9----9----9/7------------------------------------|
G|--------------11--11-11---11---11----------------------------------------|
D|-------------------------------------------------------------------------|
A|-------------------------------------------------------------------------|
E|-------------------------------------------------------------------------|

Tap to rate this tab
# A B C D E F G H I J K L M N O P Q R S T U V W X Y Z