Guitaretab - guitar tabs
Song name
# A B C D E F G H I J K L M N O P Q R S T U V W X Y Z

Juliana Theory - Duane Joseph tab

Title: Duane Joseph
Artist: The Juliana Theory
Album: understand this is a dream
Tabbed by: Derek Vergara
I'm 100% sure of this Tab.

Intro:
X1
e|----------------------------------------------------------------------|
B|----------------------------------------------------------------------|
G|----------------------------------------------------------------------|
D|-3-3-3-3-5-5-5-5-7-7-7-7-7-7-7-5-5-5-5-5-7-7-7-3-3-3-3-3-3-3-3-3------|
A|-5-5-5-5-5-5-5-5-5-5-5-5-5-5-5-5-3-3-3-3-3-3-3-3-3-3-3-3-3-3-3-3------|
D|----------------------------------------------------------------------|

e|----------------------------------------------------------------------|
B|----------------------------------------------------------------------|
G|-----5-----5-----5-----5-----5~---------------------------------------|
D|-3-3-3-3-3-3-3-3-3-3-3-3-3-3-3~------2-----3-----5-----3-----2~-------|
A|-1-1-1-1-1-1-1-1-1-1-1-1-1-1-1~--3-3-3-3-3-3-3-3-3-3-3-3-3-3-3~-------|
D|----------------------------------------------------------------------|
   . .   . .   . .   . .   . .     . .   . .   . .   . .   . .

(tell Your mom we.....)
X2, Pickslide second time
e|----------------------------------------------------------------------|
B|----------------------------------------------------------------------|
G|----------------------------------------------------------------------|
D|-----3-----5-----7-----7-----7~------5-----7-----3-----3-----3~-------|
A|-5-5-5-5-5-5-5-5-5-5-5-5-5-5-5~--3-3-3-3-3-3-3-3-3-3-3-3-3-3-3~-------|
D|----------------------------------------------------------------------|
   . .   . .   . .   . .   . .     . .   . .   . .   . .   . .

e|----------------------------------------------------------------------|
B|----------------------------------------------------------------------|
G|-----5-----5-----5-----5-----5~---------------------------------------|
D|-3-3-3-3-3-3-3-3-3-3-3-3-3-3-3~------2-----3-----5-----3-----2~-------|
A|-1-1-1-1-1-1-1-1-1-1-1-1-1-1-1~--3-3-3-3-3-3-3-3-3-3-3-3-3-3-3~-------|
D|----------------------------------------------------------------------|
   . .   . .   . .   . .   . .     . .   . .   . .   . .   . .     


Verse:

e|----------------------------------------------------------------------|
B|----------------------------------------------------------------------|
G|-7-7-7-7-7~--5-5--5-5-5~-------------------------------------------|
D|-7-7-7-7-7~--5-5--5--5-5~---------10-10-------------10-10-----------|
A|-5-5--5--5-5~--3-3--3-3-3~-----8-8-------8-8-----8-8-------8-8-------|
D|----------------------------8-8---------------8-8---------------------|

e|----------------------------------------------------------------------|
B|----------------------------------------------------------------------|
G|-------------------10-10-9-9------------------------------------------|
D|-----------------------------10-10-12~--------------------------------|
A|-------7-7-8-8-7-7----------------------------------------------------|
D|-10-10----------------------------------------------------------------|

e|----------------------------------------------------------------------|
B|----------------------------------------------------------------------|
G|-7-7-7-7-7~--5-5--5-5-5~-------------------------------------------|
D|-7-7-7-7-7~--5-5--5--5-5~---------10-10-------------10-10-----------|
A|-5-5--5--5-5~--3-3--3-3-3~-----8-8-------8-8-----8-8-------8-8-------|
D|----------------------------8-8---------------8-8---------------------|
[ Tab from: http://www.guitaretab.com/j/juliana-theory/30801.html ]
e|----------------------------------------------------------------------|
B|----------------------------------------------------------------------|
G|-------------------10-10-9-9------------------------------------------|
D|-----------------------------10-10-12~--------------------------------|
A|-------7-7-8-8-7-7----------------------------------------------------|
D|-10-10----------------------------------------------------------------|

e|----------------------------------------------------------------------|
B|----------------------------------------------------------------------|
G|-7-7-7-7-7~--5-5--5-5-5~-3>----------------------------------------|
D|-7-7-7-7-7~--5-5--5--5-5~-3>----------------------------------------|
A|-5-5--5--5-5~--3-3--3-3-3~-1>----------------------------------------|
D|----------------------------------------------------------------------|

e|----------------------------------------------------------------------|
B|----------------------------------------------------------------------|
G|---------------------------------------10-9-----10-9-----10-9---------|
D|---10-----------10---------10-----10--------10-------10~------10~-----|
A|-8----8-8-7-8-8----8-8-7-8----8-8----8--------------------------------|
D|----------------------------------------------------------------------|

Chorus:
X4, strum the A#5 chord longer the last time
e|-------------------------------|
B|-------------------------------|
G|-7-7---5~--3-3-3-3-3-3-3-3-3-3-|  
D|-7-7---5~--3-3-3-3-3-3-3-3-3-3-|
A|-5-5---3~--1-1-1-1-1-1-1-1-1-1-|
D|-------------------------------|

Post Chorus Fill:
e|------------|
B|------------|
G|------------|
D|-----2h3p2~-|
A|-1-3--------|
D|------------|

Repeat Verse
Repeat Chorus
Repeat Post Chorus Fill

Outro:

e|----------------------------------------------------------------------|
B|----------------------------------------------------------------------|
G|----5>-3-3--3-2~-3-2~-3-2-0-------------------------------------------|
D|-3>-5>-3-3------------------3~----------------------------------------|
A|-3>-3>-1-1------------------------------------------------------------|
D|-3>-------------------------------------------------------------------|

e|----------------------------------------------------------------------|
B|----------------------------------------------------------------------|
G|----5>-3-3--3-2~-3-2~-3-2-0-------------------------------------------|
D|-3>-5>-3-3------------------3~----------------------------------------|
A|-3>-3>-1-1------------------------------------------------------------|
D|-3>-------------------------------------------------------------------|

e|----------------------------------------------------------------------|
B|----------------------------------------------------------------------|
G|-10>-12>-9>--3-2~-3-2~-3-2-0------------------------------------------|
D|-x---x---x-------------------3~---------------------------------------|
A|-8>--10>-7>-----------------------------------------------------------|
D|----------------------------------------------------------------------|

e|----------------------------------------------------------------------|
B|----------------------------------------------------------------------|
G|----5>-3-3-3-3--3-2~-3-3--3-2~-3-3--3-2-0-----------------------------|
D|-3>-5>-3-3-3-3-------3-3-------3-3--------3~--3~----------------------|
A|-3>-3>-1-1-1-1-------1-1-------1-1------------3~----------------------|
D|-3>-------------------------------------------3~----------------------|
         . . . .       . .       .
Related for Duane Joseph tab