Song name
# A B C D E F G H I J K L M N O P Q R S T U V W X Y Z

Juliana Theory - If I Told You This Was Killing Me Would You Stop tab

Title:  If I Told You This Was Killing Me Would You Stop
Artist:  The Juliana Theory
Album: "Emotion is Dead"
Tabbed: Buddy Chum AKA Mike
Tuning: Dropped "D" 

Intro:
e--------------------------------------
B--------------------------------------
G--------------------------------------
D-55555555--11111111--8888888888888888- repeat 2x
A-55555555--11111111--8888888888888888-
D-55555555--11111111--8888888888888888-

Verse 1:
e-------------------------------------------
B-------------------------------------------
G-------------------------------------------
D-55555555--11111111--8888888888888888------ repeat 4x
A-55555555--11111111--8888888888888888------
D-55555555--11111111--8888888888888888------

PreChorus: "Listen hears..."
e-------------------------------------------
B-------------------------------------------
G-------------------------------------------
D-55-5-55-5--11-1-11-1--88-8-88-8-88-8-88-8- repeat 2x
A-55-5-55-5--11-1-11-1--88-8-88-8-88-8-88-8-
D-55-5-55-5--11-1-11-1--88-8-88-8-88-8-88-8-

Chorus: "Why can't you..."
e---------------------------------------
B---------------------------------------
G--------------------------------------- repeat 2x
D-555--7--8--11111111--8888888888888888-
A-555--7--8--11111111--8888888888888888-
D-555--7--8--11111111--8888888888888888-

Verse 2:
e--------------------------------------------
B--------------------------------------------
G--------------------------------------------
D-8-8--55555555--11111111--8888888888888888-
A-8-8--55555555--11111111--8888888888888888-
D-8-8--55555555--11111111--8888888888888888-

e----------------------------------------
B----------------------------------------
G----------------------------------------
D-55555555--11111111--8888888888888898--5
A-55555555--11111111--8888888888888898--5
D-55555555--11111111--8888888888888898--5

e-----------------------
B-----------------------
G-----------------------
D-8/1--8888888888888888-
A-8/1--8888888888888888-
D-8/1--8888888888888888-

e--------------------------------------
B--------------------------------------
G--------------------------------------
D-55555555--11111111--8888888888888888-
A-55555555--11111111--8888888888888888-
D-55555555--11111111--8888888888888888-

PreChorus:
e-------------------------------------------
B-------------------------------------------
G-------------------------------------------
D-55-5-55-5--11-1-11-1--88-8-88-8-88-8-88-8- repeat 2x
A-55-5-55-5--11-1-11-1--88-8-88-8-88-8-88-8-
D-55-5-55-5--11-1-11-1--88-8-88-8-88-8-88-8-

Chorus:
e---------------------------------------
B---------------------------------------
G--------------------------------------- repeat 2x
D-555--7--8--11111111--8888888888888888-
A-555--7--8--11111111--8888888888888888-
D-555--7--8--11111111--8888888888888888-

Bridge:
e------------------------------------------
B------------------------------------------
G----------------------333--5--7----------- repeat 4x
D-555--7--8--11111111--333--5--7--33333333-
A-555--7--8--11111111--111--3--5--33333333-
D-555--7--8--11111111-------------33333333-

e------------------------------------------------
B------------------------------------------------
G------------------------------------------------
D-5555555555555555--3333333333333333--5--3--3/10-
A-5555555555555555--3333333333333333--5--3--3/10-
D-5555555555555555--3333333333333333--5--3--3/10-

Outro:
e------------------------
B------------------------
G----333--5--7----------- 
D-5--333--5--7--33333333-
A-5--111--3--5--33333333-
D-5-------------33333333-

e------------------------------------------
B------------------------------------------
G----------------------333--5--7----------- repeat 3x
D-555--7--8--11111111--333--5--7--33333333-
A-555--7--8--11111111--111--3--5--33333333-
D-555--7--8--11111111-------------33333333-

e---
B---
G---
D-5-
A-5-
D-5-


Note:  I've tried so hard to look for this full tabbing online
and it was no where to be found, so I tabbed this for people
like me.
P.S. This is such an awesome band if anyone knows some tabs
please post it thanx.
Tap to rate this tab
# A B C D E F G H I J K L M N O P Q R S T U V W X Y Z