Song name
# A B C D E F G H I J K L M N O P Q R S T U V W X Y Z

Juliana Theory - August In Bethany tab

Tabbed by: GRAHAM GOH
Artist: The Juliana Theory
Song: August In Bethany

Comments:
My favourite band! playing a super nice song! I had to tab it(:
I have just finished this tab! after 1 hour! haha. dont worry, its all correct. i trust 
ears. you should too.
please rate 5 stars(:

standard tuning
Guitar 1 - capo 1st fret
Guitar 2 - capo 1st fret

Verse
==========
Guitar 1 [ACOUSTIC]
E                      B              A
With the sound of the ocean crashing

7:30 Friday evening
   E               B        A
Everything comes tumbling down
                 E              B
I choke back each tear that bleeds
                A
I'd rather rest forever in your arms
          E              B
I'd rather stay here than go
                          A
but I know that I should leave
                  A
As I sit here helpless


Interlude
==========
Guitar 1 [CLEAN] - Continue playing verse


Guitar 2 [CLEAN] - 1st Riff:

e|------5-------6p5---8---|
B|--------6---6-----6---6-|
G|----------5-------------|    x16
D|------------------------|
A|------------------------|
E|------------------------|


Chorus 1
========
Guitar 1 [CLEAN]
     C#m
Don't go
                              B
       (You said you wouldn't,   You said you wouldn't)

     A
Don't go
       (You said you wouldn't,   You said you couldn't)

     C#m
Don't go
                              B
       (You said you wouldn't,   You said you wouldn't)

      E
Don't go
       (You said you wouldn't,   You said you couldn't)

Guitar 2 [CLEAN] - Riff 2 (play twice)

e|-----------------------------------------------------------------------|
B|------5---5------------5---5------------5---5-----------5--------------|
G|----5---5---5---5----5---5---5---5----5---5---5---5---5---5-6p5---2----|
D|--------------2----------------2----------------2---------------5---5--|
A|--5----------------2---------------------------------------------------|
E|------------------------------------0---------------0------------------|


Verse 2
=======

Guitar 1 [CLEAN] - same as verse 1

Guitar 2 [CLEAN] - riff 1

Chorus 2
========

Guitar 1 [DISTORTED] - same as chorus 1


Guitar 2 [DISTORTED] - riff 3:
Octaves:
e|-----------------------------------------------------------------------|
B|-----------------------------------------------------------------------|
G|7-7-7-7-7-7-9-11-5-5-5-5-5-5-12-10-9-10-10-10-10-10-10-10-10-10-10-10--|
D|xxxxxxxxxxxxxxxxxxxxxxxxxxxxxxxxxxxxxxxxxxxxxxxxxxxxxxxxxxxxxxxxxxxxxxx|
A|5-5-5-5-5-5-7-9--3-3-3-3-3-3-10-8--7-8--8--8--8--8--8--8--8--8--8--8---|
E|-----------------------------------------------------------------------|

Guitar 1 end on "A" chord


Outro
=====

Guitar 2 [CLEAN] - riff 4:
e|-----------------------------------------0------------------------------|
B|---------------------------------------0---0--0-------------------------|
G|------------------------------------------------------------------------|
D|-8-7----------10---10---8-7-----------------2-----8-7---------10--10----|
A|------10-8-------------------10-8---0-----------------10-8------------0~|
E|-------------8----8------------------------------------------8---8------|

    E          B          A          A              E           B       A

Guitar 1 [ACOUSTIC] - Strum chords along riff 4 (as shown above)


Guitar 2 - after riff 3, follow with riff 1 (x2)


Ending
=======

Guitar 1 [ACOUSTIC] - same as verse 1

THANKS FOR RATING(:
HOW WAS IT? (:
Tap to rate this tab
# A B C D E F G H I J K L M N O P Q R S T U V W X Y Z