Song name
# A B C D E F G H I J K L M N O P Q R S T U V W X Y Z

Juliana Theory - Dont Push Love Away tab

Help us improve GuitareTab! Take a short survey!
-------------------------------------------------------------------------------
		  Don't Push Love Away - The Juliana Theory
-------------------------------------------------------------------------------
Tabbed by: Alan Bracewell
Email: kadence@gmail.com

Tuning: Standard
Strum all the chords, this songs pretty easy.

Intro/Verse: 
    Heres a thought, if your willing to listen...
e|---------------------------------------------------------------------------|
B|---------------------------------------------------------------------------|
G|-4----------------7--------------------------------------------------------|
D|-4----------------7-------------------7------------7-----------------------|
A|-2----------------5-------------------7------------7-----------------------|
E|--------------------------------------5------------5-----------------------|

Gtr 2.
This is during the verses but not the intro. 
e|---------------------------------------------------------------------------|
B|----------------------5----5-----------------------------------------------|
G|--6---7--6--7-6---7------7----7----6--6--7--6------------------------------|
D|-------------------------------------------------7-------------------------|
A|---------------------------------------------------------------------------|
E|---------------------------------------------------------------------------|
2nd time, slight variation
e|---------------------------------------------------------------------------|
B|----------------------5----5---------5-------------------------------------|
G|--6---7--6--7-6---7------7----7----6---6--7--6-----------------------------|
D|-------------------------------------------------7-------------------------|
A|---------------------------------------------------------------------------|
E|---------------------------------------------------------------------------|


Chorus:
   Can you hear me now.
Gtr 2.
e|---------------------------------------|-----------------------------------|
B|---------------------------------------|-----------------------------------|
G|--7---6--------------------------------|-----------------------------------|
D|---------9----7---5-------9--7------x3-|----5----7----7---5----------------|
A|---------------------------------------|-----------------------------------|
E|---------------------------------------|-----------------------------------|

Gtr 1. 
e|---------------------------------------------------------------------------|
B|---------------------------------------------------------------------------|
G|---------------------------------------------------------------------------|
D|---5-----9-----7-----------------------------------------------------------|
A|---5-----9-----7-----------------------------------------------------------|
E|---3-----7-----5-----------------------------------------------------------|

Bridge: Strum chord
   She's crying...
e|---------------------------------------------------------------------------|
B|---------------------------------------------------------------------------|
G|----7----------------------------------------------------------------------|
D|----7----------------------------------------------------------------------|
A|----5----------------------------------------------------------------------|
E|---------------------------------------------------------------------------|

end on:
e|--------------|
B|--------------|
G|-----4--------|
D|-----4--------|
A|-----2--------|
E|--------------|

There it is, simple, but I wanted to feel special by posting it.  If you cant figure
out the order it goes in you need help.  If you find any errors tell me, this should
be pretty close, except for the picking for the verse, wasn't positive on that.
Related for Dont Push Love Away tab