Song name
# A B C D E F G H I J K L M N O P Q R S T U V W X Y Z

Juliana Theory - As It Stands tab

Tabbed by: James 
Email: matador317@yahoo.com

Tuning: Drop D

e|-1-----1-3-----3-5-----5-8---6---5-----5-3-----3-1---0-0h1p0--------------|
B|---3-------3-------3-------8---6---3-------3-------3---------3-----3------|
G|-----2-------2-------2---7---5-------2-------2-----------------2----------|
D|-0-----0-2-----2-3-----3---------3-----3-2-----2-0---------------0--------|
A|--------------------------------------------------------------------------|
D|--------------------------------------------------------------------------|

e|-1-----1-3-----3-5-----5-8---6---5-----5-3-----3-1---0-0h1p0--------------|
B|---3-------3-------3-------8---6---3-------3-------3---------3------------|
G|-----2-------2-------2---7---5-------2-------2----------------------------|
D|-0-----0-2-----2-3-----3---------3-----3-2-----2-0------------------------|
A|--------------------------------------------------------------------------|
D|--------------------------------------------------------------------------|

| /  slide up
| \  slide down
| h  hammer-on
| p  pull-off
| ~  vibrato
| +  harmonic
| x  Mute note

There is a very wrong tab of this floating around on other sites so I wanted to be
the one to set it right before UG.com got hit w/ it. This might not be perfect but
its a lot closer. More to come on this song soon. Also this is my first tab so email
me and tell me what you think.
Tap to rate this tab
 
# A B C D E F G H I J K L M N O P Q R S T U V W X Y Z