Song name
# A B C D E F G H I J K L M N O P Q R S T U V W X Y Z

Juliana Theory - White Days tab

-------------------------------------------------------------------------------
			WHITE DAYS - The Juliana Theory
-------------------------------------------------------------------------------
Tabbed by: Robert Piller
Email: nothin7@hotmail.com

Tuning: DGCFAd (down a whole step)

A beautiful song, but a huge pain in the ass to figure out. I listened to it
at 1/5 speed ("Amazing Slow Downer" is truly an amazing program), so I can
almost guarantee you this is the correct way to play it. And damn it's not
easy. Enjoy yourself.

Background (this repeats very quickly throughout the entire song):
d|---------------------------------------------------------------------------|
A|---------------------------------------------------------------------------|
F|---------------------------------------------------------------------------|
C|---9-9---9-9---9-9---9-9---------------------------------------------------|
G|-7-----7-----7-----7-------------------------------------------------------|
D|---------------------------------------------------------------------------|
   x x x x x x x x x x x x

Verse:
d|---------0---------------0---------------4-------2-------------------------|
A|-----0-----0---------0-----0---------0h2---0h2-----0-----2/4---------------|
F|-------6-----6---------4-----4-----1-----------------4-------6\4-----------|
C|---6-----------6---4-----------4-------------------------------------------|
G|-4---------------2---------------0-------------0-------0-------------------|
D|---------------------------------------------------------------------------|

Chorus:
d|-0--0--0---------0--0--0---------------------------------------------------|
A|-0--0--0---------0--0--0---------------------------------------------------|
F|-4--4--4---------6--6--x---------------------------------------------------|
C|-2--2--2---------4--4--6---------------------------------------------------|
G|-0--0--0---------2--2--4---------------------------------------------------|
D|-----------------------2---------------------------------------------------|


| /  slide up
| \  slide down
| h  hammer-on
| p  pull-off
| ~  vibrato
| +  harmonic
| x  Mute note
===============================================================================
Tap to rate this tab
 
# A B C D E F G H I J K L M N O P Q R S T U V W X Y Z