Song name
# A B C D E F G H I J K L M N O P Q R S T U V W X Y Z

Juliana Theory - Shotgun Serenade tab

Help us improve GuitareTab! Take a short survey!
The Juliana Theory - Shotgun Serenade

Awesome song. Standard Tuning. Listen for strumming.

Intro/First Verse [Acoustic Guitar]

e|--------------------------------------------------------------|
B|--------------------------------------------------------------|
G|--7--3-----This could also be played on the lower E string----|
D|--7--3-----but I think it sounds more like this on the CD----|
A|--5--1--------------------------------------------------------|
E|--------------------------------------------------------------|

Guitar One [Chorus  Heres a final bullet to] 

e|--------------------------------------------------------------|
B|--------------------------------------------------------------|
G|--------------------------------Play after last one-----------|
D|--12---7---8---7-8--10----------12---15---8---10--------------|
A|--12---7---8---7-8--10----------12---15---8---10--------------|
E|--10---5---6---5-6---8(x5)-----10---13---6---8---------------|

Guitar One [Verse  I know youre dying to tell me ] 

e|------------------|
B|------------------|
G|------------------|
D|--12--15--8--10---|
A|--12--15--8--10---|
E|--10--13-6--8----|

Guitar One [Bridge  You cannot separate the two things I would] 

e|--------------------------------------------------------------|
B|--------------------------------------------------------------|
G|--------------------------------------------------------------|
D|--12--7--8--10--12--7-----8-10--11--12-----------------------|
A|--12--7--8--10--12--7-----8--10--11--12-----------------------|
E|--10--5--6--8---10--5-----6--8---9---10-----------------------|
	Palm Mute*

Guitar One [Interlude  Youre just a waste of a song]

e|--------------------|
B|--------------------|
G|--------------------|
D|--12--7--8--7-------|
A|--12--7--8--7-------|
E|--10--5--6--5-------|
	Palm Mute*


Related for Shotgun Serenade tab