Song name
# A B C D E F G H I J K L M N O P Q R S T U V W X Y Z

Julianne - Tulak Ng Bibig tab

TULAK NG BIBIG, KABIG NG DIBDIB by Julianne


SOLO:

e|------------------------------------------------------------|
B|-10/12-10-9h10p9-7---7--------------------------------------|
G|-------------------9---9-8-6/8----6-6h7-6---6---------------|
D|--------------------------------9---------9---9----------9--|
A|------------------------------------------------9-7-9/11----|
E|------------------------------------------------------------|

e|-------------------------------------9-11-12-14-14/16-17-16-14-12-|
B|-----------10/12-10-9-------------12------------------------------|
G|---------9------------11-9--11h13---------------------------------|
D|-12p11p9----------------------------------------------------------|
A|------------------------------------------------------------------|
E|------------------------------------------------------------------|


NITRAM
05-29-10
07:30 PM
Tap to rate this tab
# A B C D E F G H I J K L M N O P Q R S T U V W X Y Z