Song name
# A B C D E F G H I J K L M N O P Q R S T U V W X Y Z

Julie Andrews - Do Re Mi Doe A Deer Sound Of Music Easy tab

Vocal Melody line for beginning guitarists.  A great way to become familiar with the 
notes on the e and B strings.

e|-------0----0---0-------0--1--1--0----1----0--1--3--0--3--0--3---------|
B|-1--3-----1---1------3--------------3----------------------------------|
G|-----------------------------------------------------------------------|
D|-----------------------------------------------------------------------|
A|-----------------------------------------------------------------------|
E|-----------------------------------------------------------------------|

e|--1--3--5--5--3--1--5------3-------0--1--3--5--------------------------|
B|-----------------------------1--3--------------------------------------|
G|-----------------------------------------------------------------------|
D|-----------------------------------------------------------------------|
A|-----------------------------------------------------------------------|
E|-----------------------------------------------------------------------|

e|---5-----0--1--3--5--7------7--0--1--3--5--7--8------------------------|
B|------3----------------------------------------------------------------|
G|-----------------------------------------------------------------------|
D|-----------------------------------------------------------------------|
A|-----------------------------------------------------------------------|
E|-----------------------------------------------------------------------|

e|---8--7--5--3--1--0----------------------------------------------------|
B|---------------------3--1----------------------------------------------|
G|-----------------------------------------------------------------------|
D|-----------------------------------------------------------------------|
A|-----------------------------------------------------------------------|
E|-----------------------------------------------------------------------|
Tap to rate this tab
# A B C D E F G H I J K L M N O P Q R S T U V W X Y Z