Song name
# A B C D E F G H I J K L M N O P Q R S T U V W X Y Z

Julie Doiron - Heavy Snow tab

Tabbed by Chacha
Tuning: EADGBe

I grabbed these bits from the liveperformance at SWSX and I'm sure these also work
with the studio version.

e|-----------------------------------------------------|
H|---------6-------6-------6-------6-------6-------6---|
G|-------0-------0-------0-------0-------0-------0-----|
D|-----5-------5-------5-------5-------5-------5-------|
A|---6-------6-------6-------6-------6-------6---------|throughout
E|-----------------------------------------------------|whole

e|-----------------------------------------------------|
H|-----------------------------------------------------|verses
G|-----------------------------------------------------|until
D|-----------------------------------------------------|
A|------3--3--8--5-------------------------------------|each
E|------1--5--6--3-------------------------------------|"day"

Oh, heavy snow, bury me tonight in the place where our bikes lay
Lovers in the nighttime, lovers in the day...

Then, after each "day"(figure out the strummin by yourself):
e|-----------------------------------------------------|
H|-----------------------------------------------------|
G|-----------------------------------------------------|
D|-----------------------------------------------------|
A|------13--13--13--13---------------------------------|
E|------11--11--11--11---------------------------------|

Oh, heavy sleep, carry me away to the place where dreams speak
Working in the nighttime, working in the day

Oh, heavy heart, forgive me. Make me feel like it's all okay.
Living through the night and living through the day

e|-----------------------------------------------------|
H|-----------------------------------------------------|
G|-----------------------------------------------------|
D|-----------------------------------------------------|
A|------13--13--13--13---------------------------------|
E|------11--11--11--11---------------------------------|....

Then, repeating throughout last verse:
e|-------------------------------------------------------|
H|-------------------------------------------------------|
G|-------------------------------------------------------|
D|-------------------------------------------------------|
A|--------5--3--13---------------------------------------|
E|--------3--1--11---------------------------------------|
______Oh, ______heavy wind!
_______Come for me today
________and make me feel like he once did..
_____Oh, come for me today.

_______Ohoohooohohhh, etc...
Tap to rate this tab
 
# A B C D E F G H I J K L M N O P Q R S T U V W X Y Z