Song name
# A B C D E F G H I J K L M N O P Q R S T U V W X Y Z

Julie Fowlis - Into The Open Air chords

Highlighted       Show chord diagrams
Brave is the 2012 Pixar animated movie which hit theatres June 22nd.
The official soundtrack to Brave was released June 19th. The score is composed by Patrick Doyle.
Vocal talents include Julie Fowlis, Birdy, Mumford & Sons, Billy Connolly, Emma 
Thompson and Peigi Barker.

Tuning: Standard

                                        D   A or A7
e|--------------------------------------x-----x--------|
B|------------------7-----5-----5h7-----3-----2--------|
G|------5-----6-------------------------2----(2)-------|
D|--------------------------------------0-----2--------|
A|--------------------------------------x-----x--------|
E|--------------------------------------x-----x--------|


D = xx023x
G = 320033 or 3x023x
A = x0222x


D                          G
This love, it is a distant star
D                                G
     guiding us home wherever we are
D                               G
     This love, it is a burning song
D                                           G
     Shining light on the things that we've done


D                     G
I try to speak to you everyday
    D                       A
but each word we spoke, the wind blew away


D                           G        (A)
     Could these walls come crumbling down?
D                      G           A
     I want to feel my feet on the ground
D                          G         A        
     and leave behind this prison we share
     D         G   A    D
     Step into the open air


Solo:
         D     G
e|-------x-----x---------------------------------------|
B|-------3-----3---------------------------------------|
G|-------2-----2---------------------------------------|
D|-------0-----0---------------------------------------|
A|-------x-----x---------------------------------------|
E|-------x-----3---------------------------------------|


D                         G
How did we let it come to this?
D                                    G
What we just tasted we somehow still miss


D                          G
How will it feel when this day is done
    D                      A
and can we keep what we've only begun?


D                             G
     And now these walls come crumbling down
D                      G           A
     and I can feel my feet on the ground
D                      G            A        
     Can we carry this love that we share
D         G   A    D
     into the open air?
     Into the open air
     Into the open air


Outro:
         D     E     G
e|-------x-----x-----x---------------------------------|
B|-------3-----3-----3---------------------------------|
G|-------2-----2-----2---------------------------------|
D|-------0-----0-----0---------------------------------|
A|-------x-----2-----x---------------------------------|
E|-------x-----0-----3---------------------------------|


D                          G
This love, it is a burning song
Tap to rate this tab
 
# A B C D E F G H I J K L M N O P Q R S T U V W X Y Z