Song name
# A B C D E F G H I J K L M N O P Q R S T U V W X Y Z

Julien Bense - Petite tab

Help us improve GuitareTab! Take a short survey!
Capo 5
Intro : Em D (x2)	
	Em	    Em		  D4		D
||-3-----------|-3-----------|-3-------3---|-2-------2---||
||---------0---|---------0---|-----3-------|-----3-------||
||-----0-------|-----0-------|---2-------2-|---2-------2-||
||---2-------2-|---2-------2-|-0-----0-----|-0-----0-----||
||-------------|-------------|-------------|-------------||
||-0-----0-----|-0-----0-----|-------------|-------------||

Am C/G G D
Fig 2 : 
	Am	     Am		  C/G		 G
||-0-----------|-0-----------|---------0---|-------------|
||---------1---|---------1---|-1-----------|-3-------3---|
||-----2-------|-----2-------|-----2-------|-----0-------|
||---2-------2-|---2-------2-|---2-------2-|---0-------0-|
||-0-----------|-0-----------|-3-----------|-------------|
||-------0-----|-------0-----|-------3-----|-3-----3-----|

	G	      G		   D4		 D 
|-3-----------|-3-----------|-3-------3---|-2-------2---|| 
|---------0---|---------0---|-----3-------|-----3-------|| 
|-----0-------|-----0-------|---2-------2-|---2-------2-|| 
|---0-------0-|---0-------0-|-0-----0-----|-0-----0-----|| 
|-------------|-------------|-------------|-------------|| 
|-3-----3-----|-3-----3-----|-------------|-------------||

http://www.myspace.com/bensefolks
Related for Petite tab