Song name
# A B C D E F G H I J K L M N O P Q R S T U V W X Y Z

Julien Dore - Les Limites tab

Highlighted       Show chord diagrams
Julien Dore - Les Limites

D  : 557775
G  : 355433
Bb : 688766
A  : 577655
Bm : 224432
Dm ! 557765

Intro:
  D               G       Bb  A
E------0-2^0--------------1-1-0----|
B---3--------3----------3--------3-|
G-4------------2--0-0-4------------|
D----------------------------------|
A----------------------------------|
E----------------------------------|

Couplet:
  D                G                 D               
      Bb  A
E------0-2^0----------------1^0-----------0-2^0--------------1-1-0----|
B---3--------3-----------3------3------3--------3----------3--------3-|
G-2-------------2--0--4-----------4--2------------2--0-0-4------------|
D---------------------------------------------------------------------|
A---------------------------------------------------------------------|
E---------------------------------------------------------------------|

Refrain:
  Bm                   G
E------------------------------------------|
B-------3---5^3---3----------3---6^3---2---|
G-----4-------------2------4-------------4-|
D---4-----------4--------5-----------2-----|
A-2-------2-2----------5-------5-5---------|
E------------------------------------------|


D                             G
 Je depasse aisement, toutes les limites, quand je commence
D                           G               Bb        A
 Je consomme enormement,le but est de ressentir les choses
D                                          G
 Alors je depasse et j'aime en faire, des tonnes, ca irrite
D                                    G            Bb     A
 Les braves gens, plein de raison, qui respectent les limites


Refrain:
Bm                      G
He, je ne reve pas, je sais, quand j'arreterai
    Bm                      G              Bb     A  
      D
Je vais, quitter Paris, je sais apres, je vais payer, pour ca
           G                 D  G  Bb  A
Ouais, je vais, payer, pour ca


D                          G
 J'ai depasse les limites, aisement, facilement
D                                G               Bb   A
 Ouais, je depasse les limites, sans un probleme,  ethique


Refrain:
Bm                      G
He, je ne reve pas, je sais, quand j'arreterai
    Bm                      G              Bb     A  
     Dm
Je vais, quitter Paris, je sais apres, je vais payer, pour ca


Pont:
           Bb       A             Dm
Je vais payer tout ca, je vais me retrouver au bagne
         Bb                   A
Je vais, casser des cailloux, en Guyanne


Refrain:
Bm                      G
He, je ne reve pas, je sais, quand j'arreterai
    Bm                      G              Bb     A
Je vais, quitter Paris, je sais apres, je vais payer


D                          G
 J'ai depasse les limites, aisement, largement
D                             G           Bb    A
 Quand je commence, je fini, le travail, proprement
D                              G
 Je consomme, evidemment, le plus possible de liquide
D                             G                 Bb   A
 Et parfois meme du solide, bien en chair, bien enrobant


Refrain (x2):
Bm                      G
He, je ne reve pas, je sais, quand j'arreterai
    Bm                      G              Bb     A
Je vais, quitter Paris, je sais apres, je vais payer

Refrain:
Bm                      G
He, je ne reve pas, je sais, quand j'arreterai
    Bm                      G              Bb     A  
     D
Je vais, quitter Paris, je sais apres, je vais payer pour ca
    G                 D            G         Bb  A
Je vais, payer, tout ca, alors je vais, par ici la monnaie
Tap to rate this tab
# A B C D E F G H I J K L M N O P Q R S T U V W X Y Z