Song name
# A B C D E F G H I J K L M N O P Q R S T U V W X Y Z

Julien-k - Death To Analog tab

-------------------------------------------------------------------------------
		              Death to Analog - Julien - K
-------------------------------------------------------------------------------
Tabbed by:Entru
Email:yarde@mail.ru

Tuning:B standard

 Pre-riff(with delay):
B|---------------------------------------------------------------------------|
G|-/11--9--8--7--------------------------------------------------------------|
D|---------------------------------------------------------------------------|
A|---------------------------------------------------------------------------|
E|---------------------------------------------------------------------------|
B|---------------------------------------------------------------------------|

 Main Riff:
B|---------------------------------------------------------------------------|
G|---------------------------------------------------------------------------|
D|---------------------------------------------------------------------------|
A|---------------------------------------------------------------------------|
E|-9-9--9-9-7-9-----9-----9-9--9-12-12-11-10------10-------10----------------|
B|-7-7--7-7-5-7-7-7-7-7-7-7-7--7-10-10-9--8--8--8--8--8--8--8----------------|
                . .   . .                    .  .     .  .            

B|---------------------------------------------------------------------------|
G|---------------------------------------------------------------------------|
D|---------------------------------------------------------------------------|
A|---------------------------------------------------------------------------|
E|-9-9--9-9-7-9-----9-----9-9--9-12-12-11-10-------12-------12---------------|
B|-7-7--7-7-5-7-7-7-7-7-7-7-7--7-10-10-9--8--10-10-10-10-10-10---------------|
                . .   . .                     .  .     .  .          

Pre-Verse(x4 is only for for 7's):
B|--------------------------------------------------------------------------|
G|--------------------------------------------------------------------------|
D|--x4-----------x4---------------------------------------------------------|
A|-/--\----------/-\--------------------------------------------------------|
E|-9--9----7-7--9--9----7-7-12-9--------------------------------------------|
B|-7--7----5-5--7--7----5-5-10-7--------------------------------------------|

 Verse(sometimes there is 7-10-8 instead of 7-10-7):
B|---------------------------------------------------------------------------|
G|---------------------------------------------------------------------------|
D|---------------------------------------------------------------------------|
A|---------------------------------------------------------------------------|
E|---------------------------------------------------------------------------|
B|-7-7-7-7--10-10-10-10--7-7-7-7---------------------------------------------|
   . . . .   .  .  .  .  . . . .

 Clean part played here and there(update soon):
B|---------------------------------------------------------------------------|
G|---------------------------------------------------------------------------|
D|---------------------------------------------------------------------------|
A|---------------------------------------------------------------------------|
E|---------------------------------------------------------------------------|
B|---------------------------------------------------------------------------|

 Bridge(have some fun with whammy bar/pedal):
B|--------------------------------------------------------------------------|
G|--------------------------------------------------------------------------|
D|-/11--10--4------/11--14--13--12--/11--10---4-----------------------------|
A|---x---x--x--x2----x--x----x---x----x---x---x-----------------------------|
E|-/-9---8--2------/-9--12--11--10--/-9---8---2-----------------------------|
B|--------------------------------------------------------------------------|

 Last chorus(2nd guitar)(update soon):
B|---------------------------------------------------------------------------|
G|---------------------------------------------------------------------------|
D|---------------------------------------------------------------------------|
A|---------------------------------------------------------------------------|
E|---------------------------------------------------------------------------|
B|---------------------------------------------------------------------------|
   

B|---------------------------------------------------------------------------|
G|---------------------------------------------------------------------------|
D|---------------------------------------------------------------------------|
A|---------------------------------------------------------------------------|
E|---------------------------------------------------------------------------|
B|---------------------------------------------------------------------------|
   

 For pre-outro just strum muted strings.

 Outro(clean)(update soon):
B|---------------------------------------------------------------------------|
G|---------------------------------------------------------------------------|
D|---------------------------------------------------------------------------|
A|---------------------------------------------------------------------------|
E|---------------------------------------------------------------------------|
B|---------------------------------------------------------------------------|


************************************
| .   palm mute
| /   slide up
| \   slide down
| h   hammer-on
| p   pull-off
| ~   vibrato
| +   harmonic
| x   Mute note
| b   Bend
| pb  Pre-bend
| br  Bend release
| pbr Pre-bend release
| brb Bend release bend

************************************
Tap to rate this tab
# A B C D E F G H I J K L M N O P Q R S T U V W X Y Z