Song name
# A B C D E F G H I J K L M N O P Q R S T U V W X Y Z

Julien-k - Technical Difficulties tab

-----------------------------------------------------------------------------
			     Technical Difficulties - Julien-K
-----------------------------------------------------------------------------
Tabbed by:joel94
Email:joel94@sbcglobal.net

It's my second tab so yeah it might not be perfect but it's better than nothing right?

Tuning:B Standard

(Intro)
Yeah, no guitar there, but you can mess around in it or play this
B|--------------------------------------------------------------------------|
G|--------------------------------------------------------------------------|
D|--------------------------------------------------------------------------|
A|-9-9----------------------------------------------------------------------|
E|-9-9----------------------------------------------------------------------|
B|-7-7----------------------------------------------------------------------|
PM . . 

(Verse)x about 6 i think. just listen to the song
B|--------------------------------------------------------------------------|
G|--------------------------------------------------------------------------|
D|--------------------------------------------------------------------------|
A|-9-9------9------9-9-----9-9/12-------------------------------------------|
E|-9-9------9------9-9-----9-9/10-------------------------------------------|
B|-7-7------7------7-7-----7-7/10-------------------------------------------|

Chorus 
B|--------------------------------------------------------------------------|
G|--------------------------------------------------------------------------|
D|--------------------------------------------------------------------------|
A|-9-9----------------------------------------------------------------------|
E|-9-9----------------------------------------------------------------------|
B|-7-7----------------------------------------------------------------------|

Chorus Guitar 2 and Breaks (not sure about this)
B|--------------------------------------------------------------------------|
G|-9-9-9-9-9-9-9-9----------------------------------------------------------|
D|------------------6-6-6-6-6-6-6-6-----------------------------------------|
A|--------------------------------------------------------------------------|
E|--------------------------------------------------------------------------|
B|--------------------------------------------------------------------------|


************************************

| /   slide up
| \   slide down
| h   hammer-on
| p   pull-off
| ~   vibrato
| +   harmonic
| x   Mute note
| b   Bend
| pb  Pre-bend
| br  Bend release
| pbr Pre-bend release
| brb Bend release bend

************************************
Tap to rate this tab
 
# A B C D E F G H I J K L M N O P Q R S T U V W X Y Z