Guitaretab - guitar tabs
Song name
# A B C D E F G H I J K L M N O P Q R S T U V W X Y Z

Julien-k - This Machine tab

Julien K - This Machine
Team Dark's theme on Sonic Heroes

I learnt it on my Ibanez RG7321 in tuning low to high BEADGBe (standard) and
decided to tab it out,
it should be 100% correct. I've done it so it shows how the whole song goes
aswell to make it easier.


Intro
E-------------------------------------------------------------------|
B-------------------------------------------------------------------|
G-------------------------------------------------------------------|
D----------------------------------2-2-2-2-2-2-2-2-5-5-5-5-5-5-5-5--|
A--2-2-2-2-2-2-2-2-5-5-5-5-5-5-5-5-2-2-2-2-2-2-2-2-5-5-5-5-5-5-5-5--|\
E--2-2-2-2-2-2-2-2-5-5-5-5-5-5-5-5-0-0-0-0-0-0-0-0-3-3-3-3-3-3-3-3--| \
B--0-0-0-0-0-0-0-0-3-3-3-3-3-3-3-3----------------------------------|  \
                                                                        Play twice
E-------------------------------------------------------------------|  /
B-------------------------------------------------------------------| /
G-------------------------------------------------------------------|/
D--------------4-4--------------------------------------------------|
A--2-2-2-2-2-2-4-4-5-5-5-5-5-5-5-5-3-3-3-3-3-3-3-3-3-3-3-3-3-3-3-3--|
E--2-2-2-2-2-2-2-2-5-5-5-5-5-5-5-5-3-3-3-3-3-3-3-3-3-3-3-3-3-3-3-3--|
B--0-0-0-0-0-0-----3-3-3-3-3-3-3-3-1-1-1-1-1-1-1-1-1-1-1-1-1-1-1-1--|

                          Verse (Just bass)

Chorus
E-------------------------------------------------------------------|
B-------------------------------------------------------------------|
G-------------------------------------------------------------------|
D----------------------------------2-2-2-2-2-2-2-2-5-5-5-5-5-5-5-5--|
A--2-2-2-2-2-2-2-2-5-5-5-5-5-5-5-5-2-2-2-2-2-2-2-2-5-5-5-5-5-5-5-5--|\
E--2-2-2-2-2-2-2-2-5-5-5-5-5-5-5-5-0-0-0-0-0-0-0-0-3-3-3-3-3-3-3-3--| \
B--0-0-0-0-0-0-0-0-3-3-3-3-3-3-3-3----------------------------------|  \
                                                                        Play twice
E-------------------------------------------------------------------|  /
B-------------------------------------------------------------------| /
G-------------------------------------------------------------------|/
D--------------4-4--------------------------------------------------|
A--2-2-2-2-2-2-4-4-5-5-5-5-5-5-5-5-3-3-3-3-3-3-3-3-3-3-3-3-3-3-3-3--|
E--2-2-2-2-2-2-2-2-5-5-5-5-5-5-5-5-3-3-3-3-3-3-3-3-3-3-3-3-3-3-3-3--|
B--0-0-0-0-0-0-----3-3-3-3-3-3-3-3-1-1-1-1-1-1-1-1-1-1-1-1-1-1-1-1--|


E-------------|Play twice
B-------------|
G-------------|
D--2---2------|
A--2-2-2-2-3--|
E--0-2-0-2-3--|
B----0---0-1--|

                           Verse (Just bass)
[ Tab from: http://www.guitaretab.com/j/julien-k/70930.html ]
Chorus
E-------------------------------------------------------------------|
B-------------------------------------------------------------------|
G-------------------------------------------------------------------|
D----------------------------------2-2-2-2-2-2-2-2-5-5-5-5-5-5-5-5--|
A--2-2-2-2-2-2-2-2-5-5-5-5-5-5-5-5-2-2-2-2-2-2-2-2-5-5-5-5-5-5-5-5--|\
E--2-2-2-2-2-2-2-2-5-5-5-5-5-5-5-5-0-0-0-0-0-0-0-0-3-3-3-3-3-3-3-3--| \
B--0-0-0-0-0-0-0-0-3-3-3-3-3-3-3-3----------------------------------|  \
                                                                        Play twice
E-------------------------------------------------------------------|  /
B-------------------------------------------------------------------| /
G-------------------------------------------------------------------|/
D--------------4-4--------------------------------------------------|
A--2-2-2-2-2-2-4-4-5-5-5-5-5-5-5-5-3-3-3-3-3-3-3-3-3-3-3-3-3-3-3-3--|
E--2-2-2-2-2-2-2-2-5-5-5-5-5-5-5-5-3-3-3-3-3-3-3-3-3-3-3-3-3-3-3-3--|
B--0-0-0-0-0-0-----3-3-3-3-3-3-3-3-1-1-1-1-1-1-1-1-1-1-1-1-1-1-1-1--|

Bridge
E----7------10----|Play 8 times
B--5---5--8----8--|
G-----------------|
D-----------------|
A-----------------|
E-----------------|
B-----------------|

E-------------|Play 4 times
B-------------|
G-------------|
D--2---2------|
A--2-2-2-2-3--|
E--0-2-0-2-3--|
B----0---0-1--|

This is played with a sort of chorus/flanger effect, I drop the volume
back and palm mute this part as I don't have that type of effect pedal
E--------------------------------------------------------------------|
B--------------------------------------------------------------------|
G--------------------------------------------------------------------|
D--------------------------------------------------------------------|
A--------------------------------------------------------------------|
E--0-0-0-7-7-7-0-0-8-8-8-0-0-0-8-8-------10-10-10--------------------|
B----------------------------------7-7-7----------7-7-8-8-6-6-6-6-6--|

Then back to full sound
E--------------------------------------------------------------------|
B--------------------------------------------------------------------|
G--------------------------------------------------------------------|
D--------------------------------------------------------------------|
A--------------------------------------------------------------------|
E--0-0-0-7-7-7-0-0-8-8-8-0-0-0-8-8-------10-10-10---------7-7-7-7-7--|
B----------------------------------7-7-7----------7-7-8-8------------|

E--------------------------------------------------------------------|
B--------------------------------------------------------------------|
G--------------------------------------------------------------------|
D--------------------------------------------------------------------|
A--------------------------------------------------------------------|
E--0-0-0-7-7-7-0-0-8-8-8-0-0-0-8-8-------10-10-10--------------------|
B----------------------------------7-7-7----------7-7-8-8-6-6-6-6-6--|

E--------------------------------------------------------------------|
B--------------------------------------------------------------------|
G--------------------------------------------------------------------|
D--------------------------------------------------------------------|
A--------------------------------------------------------------------|
E--0-0-0-7-7-7-0-0-8-8-8-0-0-0-8-8-------10-10-10---------7-7-7-7-7--|
B----------------------------------7-7-7----------7-7-8-8------------|

Chorus
E-------------------------------------------------------------------|
B-------------------------------------------------------------------|
G-------------------------------------------------------------------|
D----------------------------------2-2-2-2-2-2-2-2-5-5-5-5-5-5-5-5--|
A--2-2-2-2-2-2-2-2-5-5-5-5-5-5-5-5-2-2-2-2-2-2-2-2-5-5-5-5-5-5-5-5--|\
E--2-2-2-2-2-2-2-2-5-5-5-5-5-5-5-5-0-0-0-0-0-0-0-0-3-3-3-3-3-3-3-3--| \
B--0-0-0-0-0-0-0-0-3-3-3-3-3-3-3-3----------------------------------|  \
                                                                        Play twice
E-------------------------------------------------------------------|  /
B-------------------------------------------------------------------| /
G-------------------------------------------------------------------|/
D--------------4-4--------------------------------------------------|
A--2-2-2-2-2-2-4-4-5-5-5-5-5-5-5-5-3-3-3-3-3-3-3-3-3-3-3-3-3-3-3-3--|
E--2-2-2-2-2-2-2-2-5-5-5-5-5-5-5-5-3-3-3-3-3-3-3-3-3-3-3-3-3-3-3-3--|
B--0-0-0-0-0-0-----3-3-3-3-3-3-3-3-1-1-1-1-1-1-1-1-1-1-1-1-1-1-1-1--|





Related for This Machine tab
Advertisement will be closed in 10 seconds