Song name
# A B C D E F G H I J K L M N O P Q R S T U V W X Y Z

Julien-k - Kick The Bass tab

Tabbed by: VioletN62
Email: jakesteffes@gmail.com

Song - Kick the Bass
Artist - Julien-K
Album - Death to Analog

Note - Best read if you copy and paste into word using the “Courier New” font, and using 
View” instead of “Page Layout View”

Amir Derakh (Dropped D)
Ryan Shuck (Dropped D)

I am tabbing this song in dropped D, but you can play it in any tuning, so long as you 
the frets you play. Also, Amir plays most of the guitar, but Ryan plays a little during 
bridge.


Intro x2
e|-----------------------------------------------------------------|
B|-----------------------------------------------------------------|
G|-----10-------10-----------------------10------10----------------|
D|---8--------8--------8---------------8-------8-------8-----------|
A|-8-------8---------8---9-----------8-------8-------8---9---------|
D|-----------------------------------------------------------------|

Verse #1 (Yup, that’s it)
e|---------|
B|---------|
G|-----10--|
D|---8-----|
A|-8-------|
D|---------|

Chorus

(I need to be somebody sometime...)
e|-----------------------------------------------------------------|
B|-----------------------------------------------------------------|
G|-------------------------------8---8-8-----------8---8-8---------|
D|-8---8-8-----------8---8-6-----8---8-8-----------8---8-8---------|
A|-8---8-8-----------8---8-6-----6---6-6-----------6---6-6---------|
D|-8---8-8-----------8---8-6---------------------------------------|
PM     .                 .           .                 .

(Yeah I’m a fool for the girl’s and the parties...)
e|-----------------------------------------------------------------|
B|-----------------------------------------------------------------|
G|--------------------------8---8-8-----8---8-8--------------------|
D|-8---8-8-----11--11-6-----8---8-8-----8---8-8--------------------|
A|-8---8-8-----11--11-6-----6---6-6-----6---6-6--------------------|
D|-8---8-8-----11--11-6--------------------------------------------|
PM     .           .            .           .

(Do you even know who you are?...)
e|-----------------------------------------------------------------|
B|-----------------------------------------------------------------|
G|-------------------------------8---8-8---8-8-----8---8-8---------|
D|-8---8-8---8-8-----8---8-6-----8---8-8---8-8-----8---8-8---------|
A|-8---8-8---8-8-----8---8-6-----6---6-6---6-6-----6---6-6---------|
D|-8---8-8---8-8-----8---8-6---------------------------------------|
PM     .                 .           .                 .

(Do you really know who you are?...)
e|-----------------------------------------------------------------|
B|-----------------------------------------------------------------|
G|--------------------------------8---8-8---8-8-----8---8-8--------|
D|-8---8-8---8-8-----11--11-6-----8---8-8---8-8-----8---8-8--------|
A|-8---8-8---8-8-----11--11-6-----6---6-6---6-6-----6---6-6--------|
D|-8---8-8---8-8-----11--11-6--------------------------------------|
PM     .                  .           .                 .


Post Chorus #1 (Look familiar?)
e|-----------------------------------------------------------------|
B|-----------------------------------------------------------------|
G|--------------10-----------------------10------10----------------|
D|------------8--------8---------------8-------8-------8-----------|
A|---------8---------8---9-----------8-------8-------8---9---------|
D|-----------------------------------------------------------------|

Verse #2 (Same as #1)

Chorus

Bridge x4 (Right after 2nd chorus)

Amir
e|---------------------------------------------------------------------|
B|---------------------------------------------------------------------|
G|-10-10-10-8--11--11-11--10---10-10-8--10--10--10-8-10-8---8---8-8-8--|
D|---------------------------------------------------------------------|
A|---------------------------------------------------------------------|
D|---------------------------------------------------------------------|

Ryan
e|---------------------------------------------------------------------|
B|---------------------------------------------------------------------|
G|---------------------------------------------------------------------|
D|-8--------8--8----------8---8--8--6---8---8---8----8------6-6-6-6-6--|
A|-8--------8--8----------8---8--8--6---8---8---8----8------6-6-6-6-6--|
D|-8--------8--8----------8---8--8--6---8---8---8----8------6-6-6-6-6--|

Chorus

Outro (Just one chord)
e|-----|
B|-----|
G|-----|
D|-8---|
A|-8---|
D|-8---|
Tap to rate this tab
 
# A B C D E F G H I J K L M N O P Q R S T U V W X Y Z