Song name
# A B C D E F G H I J K L M N O P Q R S T U V W X Y Z

Juliet Piper - Little Ants tab

e|--0--1--2--0--1--2--0--1--2--0--1--2--1--2--3--1--2--3|
B|------------------------------------------------------|
G|------------------------------------------------------|
D|------------------------------------------------------|
A|------------------------------------------------------|
E|------------------------------------------------------|

e|-----0--1--2--0--1--2--1--2--3--1--2--3---------------|
B|------------------------------------------------------|
G|------------------------------------------------------|
D|------------------------------------------------------|
A|------------------------------------------------------|
E|------------------------------------------------------|

e|---012001200120012--2--1--0--5--3--1------------------|
B|------------------------------------------------------|
G|------------------------------------------------------|
D|------------------------------------------------------|
A|------------------------------------------------------|
E|------------------------------------------------------|

e|---012001200120012--2--1--0---------------------------|
B|------------------------------------------------------|
G|------------------------------------------------------|
D|------------------------------------------------------|
A|------------------------------------------------------|
E|------------------------------------------------------|

repeat 3 more times and that's the whole song :)
many people don't listen to her but she's great so check her out here: 
<-(her website)

and if you do listen to her and are skeptical that there's guiotar in little ants, 
to it closely, there is! and this is it!
Tap to rate this tab
# A B C D E F G H I J K L M N O P Q R S T U V W X Y Z