Song name
# A B C D E F G H I J K L M N O P Q R S T U V W X Y Z

Juliet Piper - Little Ants tab

Verse 1
E -----0--1--3------0--1---3-----0--1--3------0--1--3----------------|
B --2------------2------------2------------2-------------------------|
G -------------------------------------------------------------------|
D -------------------------------------------------------------------|
A -------------------------------------------------------------------|
E -------------------------------------------------------------------|


E --0--1--3--5---0--1--3--5------0--1--3-----0--1--3----0--1--3--5---|
B ----------------------------2-----------2--------------------------|
G -------------------------------------------------------------------|
D -------------------------------------------------------------------|
A -------------------------------------------------------------------|
E -------------------------------------------------------------------|

Chorus
E ---0-1-3-0-0-1-3-0-0-1-3-0-0-1-3-0--3-1-0-5-3-1--------------------|
B -------------------------------------------------------------------|
G -------------------------------------------------------------------|
D -------------------------------------------------------------------|
A -------------------------------------------------------------------|
E -------------------------------------------------------------------|


E ---0-1-3-0-0-1-3-0-0-1-3-0-0-1-3-0--3-1-0-5------------------------|
B -------------------------------------------------------------------|
G -------------------------------------------------------------------|
D -------------------------------------------------------------------|
A -------------------------------------------------------------------|
E -------------------------------------------------------------------|


Verse 2 (same as verse 1)

Repeat Chorus

Bridge

E -----0--1--3-----0--3--1-----0--1--3-----0--1--3-------------------|
B --2-----------2-----------2-----------2----------------------------|
G -------------------------------------------------------------------|
D -------------------------------------------------------------------|
A -------------------------------------------------------------------|
E -------------------------------------------------------------------|


E --0--1--3--5--0--1--3--5-------------------------------------------|
B -------------------------------------------------------------------|
G -------------------------------------------------------------------|
D -------------------------------------------------------------------|
A -------------------------------------------------------------------|
E -------------------------------------------------------------------|

E ---0-1-3-0-0-1-3-0-0-1-3-0-0-1-3-0--3-1-0-5-3-1--------------------|
B -------------------------------------------------------------------|
G -------------------------------------------------------------------|
D -------------------------------------------------------------------|
A -------------------------------------------------------------------|
E -------------------------------------------------------------------|


E ---0-1-3-0-0-1-3-0-0-1-3-0-0-1-3-0--3-1-0-5------------------------|
B -----------------------------------------------2-------------------|
G -------------------------------------------------------------------|
D -------------------------------------------------------------------|
A -------------------------------------------------------------------|
E -------------------------------------------------------------------|

go to Juliet Piper's myspace to here the strumming pattern or pick up her EP Honesty 
iTunes or CDBaby. It's worth it!
Tap to rate this tab
# A B C D E F G H I J K L M N O P Q R S T U V W X Y Z