Song name
# A B C D E F G H I J K L M N O P Q R S T U V W X Y Z

Juliette And The Licks - Youre Speaking My Language tab

Juliette & the Licks-"You’re Speaking my Language"
Hey guuys im soo sorry that i dont have the solo well yea i'll try to geti for u guys ok 
leave me ur comments please and thank u!
Tabbed by Melody u can send me an E-mail at GuitarGoddess34@aol.com
Soo rate me!!!!
intro:
This one goes out...to the entire world
E-5-5--------------3-3-3-3------|
A-7-7----3-3—7-7---5-5-5-5------|
D-7-7----5-5—5-5---5-5-5-5------|  repeat6x's (on the 2nd x time guitar
G---------5-5—5-5---------------|  2comes in)
B-------------------------------|
e-------------------------------|

I know you think you know me better than that
I beat your dog 'cause he hit on my cat

Guitar 2 plays
E--5-5---|
A--7-7---|
D--7-7---|
G--------|
B--------|
e--------|

I wipe my face off and give your kisses back, baby.

Pre-Chours
E-5-5--------------3-3-3-3-/4-4-4-4-|
A-7-7----3-3—7-7---5-5-5-5-/6-6-6-6-|
D-7-7----5-5—5-5---5-5-5-5-/6-6-6-6-|
G---------5-5—5-5-------------------|
B-----------------------------------|
e-----------------------------------|

You're speakin' my language baby
You're speakin' my language baby
You're speakin' my language baby
Keep the pinball rollin'.


E-5-5--------------3-3-3-3-------|
A-7-7----3-3—7-7---5-5-5-5-------|
D-7-7----5-5—5-5---5-5-5-5-------|  repeat4x's
G--------5-5—5-5-----------------|
B--------------------------------|
e--------------------------------|

All the boys and all of the girls
Quit your drugs
Shake it up
Rule the world
I wanna feed you like a bunch of baby birds
Punch your mind
Make sure that you heard
Another reckless little don't ya know

E-5-5--------------3-3/5/3-------|
A-7-7----3-3—7-7---5-5/7/5-------|
D-7-7----5-5—5-5---5-5/7/5-------|  repeat6x's (on the 2nd x time guitar
G--------5-5—5-5-----------------|  2comes in)
B--------------------------------|
e--------------------------------|

You think you're winning when your winning to lose

E-5-5--------------3-3-3-3-/4-4-4-4-|
A-7-7----3-3—7-7---5-5-5-5-/6-6-6-6-|
D-7-7----5-5—5-5---5-5-5-5-/6-6-6-6-|
G---------5-5—5-5-------------------|
B-----------------------------------|
e-----------------------------------|

You're speakin' my language baby
You're speakin' my language baby
You're speakin' my language baby

E-5-5--------------3-3-3-3-------|
A-7-7----3-3—7-7---5-5-5-5-------|
D-7-7----5-5—5-5---5-5-5-5-------|  repeat4x's
G--------5-5—5-5-----------------|
B--------------------------------|
e--------------------------------|


E-0--
A-2--
D-2-- reapeat 13x's
G----
E----
e----

I don't think you heard me...
I know you think you know me better than that
I beat your dog 'cause he hit on my cat
I wipe my face off and give your kisses back

Keep your trigger loaded while you're....

E-5-
A-7-
D-7-
G--
B--
e--

rockin' and rollin' all night

E-5-
A-7-
D-7-
G--
B--
e--

Solo starts here

You're speakin' my language baby
You're speakin' my language baby
You're speakin' my language baby
You're speakin' my language baby
You're speakin' my language baby
You're speakin' my language baby
You're speakin'
You're speakin'
You're speakin'
You're speakin'

E-5-5--------------3-3-3-3------------------|
A-7-7----3-3—7-7---5-5-5-5------------------|
D-7-7----5-5—5-5---5-5-5-5------  repeat 12-|x's
G--------5-5—5-5----------------------------|
B-------------------------------------------|
e-------------------------------------------|


You're speakin' oooohhh oh YEAH!

E-5-5--------------3-3-3-3-/4-4-4-4-|
A-7-7----3-3—7-7---5-5-5-5-/6-6-6-6-|
D-7-7----5-5—5-5---5-5-5-5-/6-6-6-6-|
G---------5-5—5-5-------------------|
B-----------------------------------|
e-----------------------------------|

END

E-5-
A-7-
D-7-
G--
B--
e--
Tap to rate this tab
# A B C D E F G H I J K L M N O P Q R S T U V W X Y Z