Guitaretab - guitar tabs
Song name
# A B C D E F G H I J K L M N O P Q R S T U V W X Y Z

Juliette And The Licks - Purgatory Blues tab

JULIETTE AND THE LICKS, Four on the Floor  #6 Purgatory Blues 

Standard tuning
Intro/Verse:

e|------------------------------------------------------------|
B|------------------------------------------------------------|
G|------------------------------------------------------------|
D|-----------------------4-6----------------------------------|
A|--4--4-4-7-4--7-4--7-4--------------------------------------|
E|----------------------------4--4-4-7-4--7-4--4-7-4----------|

e|------------------------------------------------------------|
B|------------------------------------------------------------|
G|------------------------------------------------------------|
D|-----------------------4-6----------------------------------|   x2
A|--4--4-4-7-4--7-4--7-4-----------------------ss9-7-6--------|
E|----------------------------4--4-4-7-4--7-4-----------------|

On the third time play this prechorus:

  ... instead I settle for what I find ...
e|-----------------------------------|
B|-----------------------------------|
G|------11---9---8---6---------------|
D|--6---11---9---8---6---------------|
A|--6---9----7---6---4---------------|
E|--4--------------------------------|

Chorus:

Get it in throw in your cheap shots, cheap shot baby
Isn't that all life really is, a bunch of have nots
And the gods will laugh when you think you've found ...

e|----------------------------------------------------------|
B|----------------------------------------------------------|
G|---4--------------------6---------------------------------|
D|---4--------------------6----------7----------------------|  x3
A|---2--------------------4----------7----------------------|
E|-----------------------------------5----------------------|

  Your lot  ...And take it all away
e|----------------------------------------------------------|
B|----------------------------------------------------------|
G|--4----------13--11-9s8--6-------------------------------|
D|--4----------13--11--9s8--6-------------------------------|
A|--2----------11--9---7s6--4-------------------------------|
E|----------------------------------------------------------|

Verse:

e|------------------------------------------------------------|
B|------------------------------------------------------------|
G|------------------------------------------------------------|
D|-----------------------4-6----------------------------------|
A|--4--4-4-7-4--7-4--7-4--------------------------------------|
E|----------------------------4--4-4-7-4--7-4--4-7-4----------|

e|------------------------------------------------------------|
B|------------------------------------------------------------|
G|------------------------------------------------------------|
D|-----------------------4-6----------------------------------|   x2
A|--4--4-4-7-4--7-4--7-4-----------------------ss9-7-6--------|
E|----------------------------4--4-4-7-4--7-4-----------------|

Third time:
... before I got sold on the lie...
e|-----------------------------------|
B|-----------------------------------|
G|------11---9---8---6---------------|
D|--6---11---9---8---6---------------|
A|--6---9----7---6---4---------------|
E|--4--------------------------------|

Chorus:

Get it in throw in your cheap shots, cheap shot baby
Isn't that all life really is, a bunch of have nots
And the gods will laugh when you think you've found ...
[ Tab from: http://www.guitaretab.com/j/juliette-and-the-licks/90116.html ]
e|----------------------------------------------------------|
B|----------------------------------------------------------|
G|---4--------------------6---------------------------------|
D|---4--------------------6----------7----------------------|  x3
A|---2--------------------4----------7----------------------|
E|-----------------------------------5----------------------|

  Your lot  ...And take it all away
e|----------------------------------------------------------|
B|----------------------------------------------------------|
G|--4----------13--11-9s8--6-------------------------------|
D|--4----------13--11--9s8--6-------------------------------|
A|--2----------11--9---7s6--4-------------------------------|
E|----------------------------------------------------------|

Bridge:
                       ...Redemption
e|----------------------------------------------------|
B|----------------------------------------------------|
G|--6---6-6--6--6--6--6-6----------------------------|
D|--6---6--6--6--6--6--6-6---6---6--6--6--6--6--6-6---|    x3.. then:
A|--4---4--4-4--4--4--4-4---6---6--6--6--6--6--6-6---|
E|---------------------------4---4--4--4--4--4-4-4---|

e|---------------------------------------------------------------|  
B|---------------------------------------------------------------|  
G|--6---6-6--6--6--6--6-6---------------------------------------|  
D|--6---6--6--6--6--6--6-6---6---6-6-6-6-9-9-9-9-9-9-2-----------|  
A|--4---4--4-4--4--4--4-4---6---6-6-6-6-9-9-9-9-9-9-2-let ring--|  
E|---------------------------4---4-4-4-4-7-7-7-7-7-7-0-----------|  

|----|
|----|
|----|
|--2-|        let ring...
|--2-|
|--0-|

02.19:
e|----------------------------------------|
B|----------------------------------------|
G|-6-6-6-8-8-8-9-9-9--8-8-8-9-9-9-111111-|
D|-x-x-x-x-x-x-x-x-x-x-x-x-x-x-x-x-x-x---|
A|-4-4-4-6-6-6-7-7-7--6-6-6-7-7-7-9-9-9---|
E|----------------------------------------|

e|--------------------------------------------|
B|--------------------------------------------|
G|---9-9-9-111111-131313111111-131313-141414-|
D|---x-x-x-x-x-x--x-x-x---x-x-x--x-x-x--x-x-x-|
A|---7-7-7-9-9-9--111111-9-9-9-111111-121212-|
E|--------------------------------------------|


e|------------------------------------------|
B|------------------------------------------|
G|-8-8-8-9-9-9-111111--9-9-9-111111-131313-|
D|-x-x-x-x-x-x-x-x-x---x-x-x-x-x-x--x-x-x---|
A|-6-6-6-7-7-7-9-9-9---7-7-7-9-9-9--111111-|
E|------------------------------------------|

e|------------------------------------------|
B|------------------------------------------|
G|--121212-141414-151515--16-16-16-16-16--|
D|---x-x-x--x-x-x--x-x-x----x--x-x--x-x---|
A|---101010-121212-131313--1414-14-14-14--|
E|------------------------------------------|

Chorus:

Oh, isn't that all life really is a bunch of cheap shots
And you give it what you've got
You give it what you've got
And the gods will laugh when you think you've found your lot
And take it all away
They'll take it all away you fool

e|----------------------------------------------------------|
B|----------------------------------------------------------|
G|---4--------------------6---------------------------------|
D|---4--------------------6----------7----------------------|  x6
A|---2--------------------4----------7----------------------|
E|-----------------------------------5----------------------|


End:
e|--------------------------------------------------------|
B|--------------------------------------------------------|
G|-4-4-4-4--5-5-5-5-5---13--11-9s8--6--------------------|
D|-4-4-4-4--6-6-6-6-6---13--11--9s8--6--------------------|
A|-2-2-2-2--6-6-6-6-6---11--9---7s6--4--------------------|
E|----------4-4-4-4-4-------------------------------------|

Related for Purgatory Blues tab