Song name
# A B C D E F G H I J K L M N O P Q R S T U V W X Y Z

Juliette Katz - Tout Le Monde tab

Intro/Verse

   Cm7   A#m6   G#7   G7
e|---------------------------]
B|---------------------------]
G|---8-----6-----5-----4-----]
D|---8-----5-----4-----3-----]
A|---------------------------]
E|---8-----6-----4-----3-----]



Chorus

    Cm    G#    Fm     G
e|---3-----x-----1-----3-----]
B|---4-----4-----1-----3-----]
G|---5-----5-----1-----4-----]
D|---5-----6-----3-----5-----]
A|---3-----6-----3-----5-----]
E|---x-----4-----1-----3-----]



Bridge

    G#    Cm      G#     G
e|---4-----3---|---4-----3-----]
B|---4-----4---|---4-----3-----]
G|---5-----5---|---5-----4-----]
D|---6-----5---|---6-----5-----]
A|---6-----3---|---6-----5-----]
E|---4---------|---4-----3-----]

 |   3 times   |


That's a summer song, so pick your 'gratte' & go out make some people happy !
Tap to rate this tab
# A B C D E F G H I J K L M N O P Q R S T U V W X Y Z