Song name
# A B C D E F G H I J K L M N O P Q R S T U V W X Y Z

Julio Cesar Oliva - Tres Instantes - 3 Obsesion tab

1
E|-------------0-----2-----|-------------------------|-------------0-----2-----|
B|-------3---------0---0---|-3-----3-----------3-----|-------3---------0---0---|
G|-----4---4---------------|-----0---0-------0---0---|-----4---4---------------|
D|---------------0-------0-|---4-------4---4-------4-|---------------0-------0-|
A|---5-------5-------------|-------------2-----------|---5-------5-------------|
E|-3-----------2-----------|-0-----------------------|-3-----------2-----------|
      mf                                    p           mf
4
E|-------------------------|-------------0-----------|-5-----3-----------3-----|
B|-3-----3-----------3-----|-------3-----------3-----|-----0---0-------0---0---|
G|-----5---5-------5---5---|-----2---2-------2---2---|-------------------------|
D|---5-------5---4-------4-|---4-------4---4-------4-|---0-------0---1-------1-|
A|-------------------------|-3-----------------------|-------------------------|
E|-0-----------2-----------|-------------2-----------|-3-----------3-----------|
                   p         mf
7
E|-2-----0-----------------|-------------------------|-------------0-----2-----|
B|-----1---1---3-----1-----|-0-----------------------|-------3---------0---0---|
G|---0-------0-----0---0---|-------2-----------3-----|-----4---4---------------|
D|---------------2-------2-|-----0---0-------0---0---|---------------0-------0-|
A|-3-----------0-----------|---3-------3---3-------3-|---5-------5-------------|
E|-------------------------|-2-----------2-----------|-3-----------2-----------|
   f                                           ten.    mf   a tempo
10                                                    
E|-------------------------|-------------0-----2-----|-------------------------|
B|-3-----3-----------3-----|-------3---------0---0---|-3-----3-----------3-----|
G|-----0---0-------0---0---|-----4---4---------------|-----5---5-------5---5---|
D|---4-------4---4-------4-|---------------0-------0-|---5-------5---4-------4-|
A|-------------2-----------|---5-------5-------------|-------------------------|
E|-0-----------------------|-3-----------2-----------|-0-----------2-----------|
                               mf                                     p
13
E|-------------0-----------|-5-----3-----------3-----|-3-----5-----3-----5-----|
B|-------3-----------3-----|-----0---0-------0---0---|-----5---5-------5---5---|
G|-----2---2-------2---2---|-------------------------|---0-------0---0-------0-|
D|---4-------4---4-------4-|---0-------0---1-------1-|-------------------------|
A|-3-----------------------|-------------------------|-3-----------3-----------|
E|-------------2-----------|-3-----------3-----------|-------------------------|
     mf                               <                f                   <
16
E|-8-----7-----5-----3-----|-2-----0-----------0-----|-----------0-------------|
B|-----------------4---3---|-----3---2---4-------2---|---------0---0-----------|
G|-----9---8-----0-------0-|---0-------0-----0-----0-|-2-----0-------0---0-----|
D|---7-------7-------------|---------------2---------|-----2-----------2---2---|
A|-------------------1-----|-0-----------0-----------|-0-3-------------------3-|
E|-7-----------0-----------|-------------------------|-------------------------|
      con anima                                  >      mf  <  flottant  >
19
E|---------0-8-0-----2-----|-------------0-----2-----|-------------------------|
B|-------1-------1-----1---|-------3---------0---0---|-3-----3-----------3-----|
G|-----0-----------0-----2-|-----4---4---------------|-----0---0-------0---0---|
D|---0---------------------|---0-------0---0-------0-|---4-------4---4-------4-|
A|-0-----------------------|-------------------------|-------------2-----------|
E|-------------------------|-3-----------2-----------|-0-----------------------|
      <       poco rit>        a tempo                               p
22
E|-------------0-----2-----|-------------------------|-------------0-----------|
B|-------3---------0---0---|-3-----3-----------3-----|-------3-----------3-----|
G|-----4---4---------------|-----5---5-------5---5---|-----2---2-------2---2---|
D|---0-------0---0-------0-|---5-------5---4-------4-|---4-------4---4-------4-|
A|-------------------------|-------------------------|-3-----------------------|
E|-3-----------2-----------|-0-----------2-----------|-------------2-----------|
     mf                                       p          mf
25
E|-5-----3-----------3-----|-2-----3-----5-----7-----|-7---------7-------------|
B|-----0---0-------0---0---|-----1---1-------5---5---|---------7---7-----------|
G|-------------------------|---0-------0---5-------5-|-------9-------8---8-----|
D|---0-------0---1-------1-|-------------------------|-----9-----------9---9---|
A|-------------------------|-3-----------0-----------|---9-------------------9-|
E|-3-----------3-----------|-------------------------|-7-----------------------|
                                           cresc.           <            >
28
E|-----------2-------------|-------------------------|-------------------------|
B|---------4---4-----2-----|-------5-----4-----2-----|-------------------4-----|
G|-------4-------4-----3---|-----4---4-----5-----4---|-------4-----6-------4---|
D|-----2-----------2-----2-|---4-------4-----4-----4-|-----4---4-------4-----4-|
A|---4---------------------|-2-----------------------|---6-------6---6---------|
E|-2-----------------------|-------------------------|-5-----------5-----------|
     <                >                                  p
31
E|-------0-----2-----3-----|-------2-----3-----5-----|-2-----3-----5-----7-----|
B|-4---0---0-------0---0---|-----3---3-------3---3---|-----3---3-------0---0---|
G|-------------------------|---2-------2---2-------2-|---0-------0-------------|
D|---2-------2---2-------2-|-------------------------|---------------0-------0-|
A|-------------------------|-------------3-----------|-2-----------------------|
E|-3-----------3-----------|-2-----------------------|-------------3-----------|
                               mf
34
E|-2-----5-----3-----0-----|-------2-----0-----3-----|-2-----------------0-----|
B|-----3---3---------------|-4-------3-----------2---|-------4-----2-------1---|
G|-----------------0---3---|-----4-----4---0-3-----3-|-----4---4-------0-----0-|
D|---4-------4-------------|---4---------------------|---4-------4---2---------|
A|-2-------------2-------4-|-2-----------2-----------|-2-----------2-----------|
E|-------------0-----2-----|-------------------------|-------------------------|

37
E|-------------------0-----|-------4-----------6-----|-------8-----7-----4-----|
B|-4-----5-3---4---2---3-2-|-4-------4---4-------4---|-4-------4-------0---0---|
G|-----4-----4---0---------|-----5-----5-----6-----6-|-----5-----5-------------|
D|---4---------------------|---------------5---------|---------------0-------0-|
A|-2-----------1-----------|---6---------------------|---6---------------------|
E|-------------------------|-4-----------4-----------|-4-----------4-----3-----|
                     dim. 
40
E|-3-----0-----3-----------|-3-----------3-----5-----|-5-----3-----2-----3-----|
B|-----3---3-------0-3-0---|-----3-5-3-----3-5---5---|-----3---3-------3---3---|
G|---0-------0---0-------0-|-----------------------5-|---4-------4---4-------4-|
D|-------------------------|---5-------5-------------|-0-----------0-----------|
A|-3-----------3-----------|-3-----------3-----------|-------------------------|
E|-------------------------|-------------------------|-------------------------|
                                           movendo      
43
E|-4-----5-----4-----5-----|-6-----7-0---6-----7-----|10-----8-----7-----5-----|
B|-----3---3-------4---4---|-----0-----0-----5---5---|---------8-----------8---|
G|---5-------5---4-------4-|---0---------------------|-----9-----7-----5-----5-|
D|-0-----------------------|---------------6-------6-|--10-----------5---------|
A|-------------6-----------|-------------------------|-0-----------6-----------|
E|-------------------------|-0-----------4-----------|-------------------------|
                   cresc.                 intenso        con anima
46
E|-5-----3-----------------|-1-----0-----1-----0-----|-3-----2-----3-----2-----|
B|---0-3---3-0-2-----3-----|-----0---0-------0---0---|-----1---1-------2---2---|
G|-----------------0---0---|---1-------1---1-------1-|---2-------2---3-------3-|
D|-0-------------0-------0-|-------------------------|-------------------------|
A|-------------2-----------|-------------------------|-0-----------1-----------|
E|-------------------------|-4-----------4-----------|-------------------------|
                                                              cresc.
49
E|-5-----3-----5-----3-----|-7----12-5-3-7---0-8-3---|-7-----5-----7-----5-----|
B|-----3---3-------4---4---|-----0---------1-------4-|-----5---5-------6---7---|
G|---0-------0---0-------0-|---0---------------------|---6-------6---5-------5-|
D|-------------------------|-------------------------|-0-----------0-----------|
A|-2-----------2-----------|-3-----------0-----------|-------------------------|
E|-------------------------|-------------------------|-------------------------|
        sempre cresc.                                                 poco rit.
52
E|-------------0-----2-----|-------------0-----2-----|-------------0-----2-----|
B|-------3---------0---0---|-3-----3-----------------|-3-----3---------0---0---|
G|-----4---4---------------|-----2---2-------2---2---|-----4---4---------------|
D|---0-------0---0-------0-|---4-------4---4-------4-|---0-------0---0-------0-|
A|-------------------------|-------------------------|-------------------------|
E|-3-----------3-----------|-3-----------3-----------|-3-----------2-----------|
     mf
55
E|-2-----3-----5-----6-----|-7-----------------------|-3----------------------||
B|-----0---0-------4---4---|-0-----------3-----------|-0---------0------------||
G|---------------0-------0-|-------------------------|------------------------||
D|---0-------0-------------|-0-----------4-----------|-1---------0------------||
A|-------------3-----------|-------------3-----------|------------------------||
E|-0-----------------------|-3-----------3-----------|-3----------------------||
                  poco rit.       mf                p
Tap to rate this tab
# A B C D E F G H I J K L M N O P Q R S T U V W X Y Z