Song name
# A B C D E F G H I J K L M N O P Q R S T U V W X Y Z

Julio Cesar Oliva - Suite Montebello - Ii - Tisu tab

Molto adagio
   |           |           |           |
E|-----------0-3-0-------------------0-7---0--------|
B|---------0-------3-1-0-----------0-----8---1-0----|
G|-----0-2---------------0-------0---------------0--|
D|-----------------------------2--------------------|
A|---3-----------------------3----------------------|
E|-0==========-------------5==========--------------|
     f        mf             f        mf

   |           |           |           |
E|-----------0-5---0-----------------0-3-0----------|
B|---------0-----6---1-------------0-------0--------|
G|-------2-------------2---------2-----------1-0----|
D|-----2-----------------3---0-3-----------------3--|
A|---3----------------------------------------------|
E|-1==========-------------3------------------------|
     f        mf                    p molto allargando

Languido e sognante
    >               >                  >               >
    |       |       |       |          |       |       |       |
E|--3========---0-3---------------0-|----------------0---------------0-|
B|--------0---3-----1========-0-1---|------------0-1---6============-0-|
G|*-----0---0======---------0==-----|--2============---------5---------|
D|*---2-------------------2---------|------2---2=======----3-------6---|
A|--3========---2---0---0-----------|----3---3-----------5-------5-----|
E|--------------------0---------3==-|--1========-------3======-3======-|
    mf                pp    mf                            poco rubato

                    >          >  >    >               >
    |       |       |        |         |       |       |       |
E|--3==========-0-3-7=========-10-8-|------------------0==========-7-10-|
B|--------0---3------------5--------|--5==========---3-----------3-0----|
G|------0---0======------5---5=====-|--------2-----5---------2----------|
D|----2----------------5------------|------2---2=======----2-----3------|
A|--3==========-2==-0=========------|----3---------------3--------------|
E|----------------------------------|--2========-------1======-3=======-|
                                                                 ten

    >                                  >                             >
    |       |       |       |          |       |       |       |
E|--3=========--5-8-----------------|----------3==============-3====---|
B|--------3---------6======-1==-3==-|--5======---5-----------4-5-----1-|
G|------0-----5---------5---2==-----|--------3-----3-------3-----3---3-|
D|--------------5-----7---7-3==-5==-|------3---------3---5---------5-2-|
A|----2-----0==-----5======---------|----3-----------------------------|
E|--0======-----------------3======-|--3==============-0==============-|
                                              pp          molto rit f

El fin de la inocencia (tema del film)
                                                                     >
    |       |       |       |          |       |       |       |
E|--7====-8-5====---5====-7-3-------|--3====-5---------3====---3====---|
B|------6-------3-------3-------1---|------1---6====-5-----5-------5-1-|
G|------5-------4-4-----0-------3-2-|----2---------4---------4-3-----3-|
D|----7-------3---------------2-----|--0======---3-------5-------5---2-|
A|--0======-----------2-----0======-|------------------3======---------|
E|----------3======-0======---------|----------3======---------0======-|
     a tempo                                                   molto rit.
     doloroso

    |           |       |         |      1..|.........|.......|.......|........
E|--7=====-10p8-5======-5====-8p7-3====--|--3====-7p5-----------------3==-------|
B|-------6----------3-------3---------1--|------1-----6====-5-3======-1==-------|
G|-------5----------4-4-----0---------3-2|----2-----------3---1======-----3==--*|
D|-----7----------3-----------------2----|--0========-----------------3==------*|
A|--0==========-----------2-------0======|--------------3-----3======-----------|
E|--------------3======-0========--------|------------3======-1======-3======---|
                                                                      molto rit.

 2..|.........|.......|.......|.......   |       |       |       |
E|--3====-7p5-----------------------1-|----------------3-3==============-||
B|------1-----6====-5-3====-------3---|--------------3---3==============-||
G|----2-----------4---1====-1---2-----|--------0---0-----0==============-||
D|--0========---3---------3---3-------|------2---2-------2==============-||
A|----------------------3-------------|----3-----------------------------||
E|------------3======-1---------------|--0==============================-||
              allarg.        molto rit.    p
Tap to rate this tab
 
# A B C D E F G H I J K L M N O P Q R S T U V W X Y Z