Song name
# A B C D E F G H I J K L M N O P Q R S T U V W X Y Z

Julio Cezar Sanders - Adios Muchachos tab

#----------------------------------PLEASE NOTE--------------------------------#
#This file is the author's own work and represents their interpretation of the#
#song. You may only use this file for private study, scholarship, or research.#
#-----------------------------------------------------------------------------#

ADIУS MUCHACHOS

music by julio cйsar sanders
arranged by roland dyens
words by cйsar vedani
transcribed by wim - august 2006

nice dyens arrangement of this famous tango from the golden age.  i've never 
actually heard dyens play the song, and i don't know what tempo he plays it, 
so if anyone knows whether or not he has recorded this tune please send me a 
message (wimiam at yahoo)


   Q=69

   1/4        4/4
|--0tr2---0-|-9-5-5-5-^7----------5-------7-7-5-|
|-------4---|---5-----^6--6/9-9-9---7-----7-----|
|-----------|---6-----^6------------9-----7-----|
|-----------|---------------------0-----0-------|
|-----------|-0-----------------------0---------|
|-----------|-----------------------------------|


|-5-4-----5-5-4-2h4p2-------0-0-0-|
|-3-3---------------2-5-----5-4-3-|
|-4-4---------------2-6-----------|
|-2---3\2-----------2-------------|
|-------------------0-----0-------|
|---------0-------------0---------|


|-5---0-0-0--4--------2-------0tr2---0-|-4-0-0-0-^2--------0-------0tr2---0-|
|------------5--5-5-5---3----------4---|-3----------3-3/-7---2----------4---|
|------------4----3-----6--------------|-4-------^5----------4--------------|
|-----------------5--------------------|-2-------^2-------------------------|
|---3/4-----------3---2-----2----------|-------------------0-----0----------|
|-------------------------2------------|---------^0------------0------------|
                                                               pizz.

|-9-5-5-5-^7--------5-------7-7-5-|-5-4-------5-5-4-2h4p2-------5-5-0--|
|---5-----^6--9-9-9---7-----7-----|-3-3-------3---------2-5------------|
|---6-----^6----------9-----7-----|-4-4-------4---------2-6------------|
|-------------------0-----0-------|-2---------3---------2--------------|
|-0---------------------0---------|---------------------0-----0--------|
|---------------------------------|---0h1p0-0---------------0----------|


|-0----------------0-------------1-----|----------------------------|
|---3-3-2-2-0-0---------3----------3-0-|-0-------2-0--------3-----2-|
|---------------2----------------------|---2-1-2-2-1---2--6---6-5---|
|--------------------------------------|---------1-0---2------------|
|-0-----------------------0tr1---------|---------2-----4------------|
|---------3-----------2--------1-------|---0---------0-5------------|


|-5-4----------------4-2---0-2-0---0-|-5-4---0--2--4---5-7-9---5-7p5-4-5/-|
|-2-------2h3--2-1-2-2-----------4---|-3--------3-------------------------|
|-4------------------2---------------|-2----------------------------------|
|-3----------------------------------|-----4-2----------------------------|
|----------------------------0---1---|-2---------------------0------------|
|-----0h1------------2---4-----------|---------------0--------------------|


|-9-7-------------7-5-0-----0-4-2-|-------0---0---4p2-0------------------|
|-7-----10\-6------------4--------|-5-3-----4----------------------------|
|-7---------7-7----------6--------|---------4-----5---6------------------|
|-0---------7---0-----7-----------|-4------------------------------------|
|-----0-----------4-----------3---|-2---0---------------------4h5-4-3h4--|
|-----------7---------------------|---------4---0-------4p2-0------------|


|-----9---------------------0--2--2p0---0-|
|-6-------------------2---------------4---|
|-6---7---------------2-------------------|
|-7-6---9-----7p6-4-3-6-4-----------------|
|-------------------------------------1---|
|-------------------------2---------------|


|-5-4---0--2--4---5-7-9---5-7-5tr7-4-5--|
|-3--------3----------------------------|
|-2-------------------------------------|
|-----4-2-------------------------------|
|-2---------------------0---------------|
|---------------0-----------------------|


|-9-7------------7-5-0-----0-^4-2-|--------2----------------------|
|-7-----10-6------------4---------|-^5-3-----2-0------------------|
|-7--------7-7----------6----^3---|-^2-------2-1-2----------------|
|-0--------7---0-----7------------|------4---1-0------------------|
|-----0----------4----------------|-^2-----------4------<5>-------|
|----------7-----------------^2---|------------0-5-<5>------0-0-0-|


|-----------------2----5--2--------|-----------<12>-----------------0-0-0--|
|-----5---6-------5----3-----------|-3--3-<12>--------------1-2-3-4--------|
|-----6---6------------------------|-4--4-------------------2--------------|
|----------------------------------|-3--2-------------------1--------------|
|-4-0-0-0---------0----------2-2-0-|-0--------------0-0--------------------|
|---------7-4-4-4----2-------------|----4---------------4-2---0------------|


|-^5-0-0-0-^4-0-0-0-2-------0tr2---0-|-^4-0-0-0-^2--------0-------0-0-0-|
|-^2-------^2---------3----------4---|-^3----------3-3/-7---2-----------|
|-^2-------^2---------6--------------|-^2-------^5----------4-----------|
|-^2-------^2------------------------|-^2-------^2----------------------|
|-^0----------------2-----2----------|--------------------0-----0-------|
|-----------------------2------------|----------^0------------0---------|
                                                              pizz.

|-9-5-5-5-^7----------5-------7-7-5-|-5-4-----5-5-4-2h4p2-------5-5-0--|
|---5-----^6--6/9-9-9---7-----7-----|-3-----------------2-5------------|
|---6-----^6------------9-----7-----|-4-----------------2-6------------|
|---------------------0-----0-------|-2---3\2-----------2--------------|
|-0-----------------------0---------|-------------------0-----0--------|
|-----------------------------------|---------0-------------0----------|
                                                            pizz.

|-0----------------0-------------1-----|--------------------------||
|---3-3-2-2-0-0---------3----------3-0-|-0-------2-0--------------||
|---------------2----------------------|---2-1h2-2-1-2------------||
|--------------------------------------|---------1-0--------------||
|-0-----------------------0tr1---------|---------2---4------<5>---||
|---------3-----------2--------1-------|---0-------0-5-<5>--------||


oddly, dyens has offered FOUR different endings for the final bar, and says
"choisissez votre fin ou mйlangez-les" (literally "choose your ending, or mix
them").  the final bar shown above is the first of four, here were the others ->

2 (ends on the 'wrong' chord, annoyingly common gimmick in tango music ;)

|-------------------^0---||
|-0-------2---0-----^3---||
|---2-1h2-2---1---2-^4---||
|---------1---0-----^6---||
|-----------2-----4-^7---||
|---0---------1-0-5-^0---||

3 (cheesy or sweet, depending on your mood)

|---------------------5---||
|-0-------2-0---5-5-5-5---||
|---2-1h2-2-1-2-6-6-6-6---||
|---------1-0-------------||
|-4---3---2---4---------0-||
|-0---------0-5-----------||
                pizz.

4 (with a last-minute key modulation)

|-----------------------------|----12--5-----||
|-0-------2-0-----------------|-----9--------||
|---2-1h2-2-1-2---------------|--------6-----||
|---------1-0---------3-0-0-0-|-2--12--------||
|---------2---3-0-0-0---------|----------0---||
|---0-------0-1---------------|-----0--------||
                pizz.


Tablature Legend
----------------
 h     - hammer-on
 p     - pull-off
 /     - slide up
 \     - slide down
    - natural harmonic
 tr    - trill
 pizz. - pizzicato/palm muting
 ^     - arpeggio

Lyrics
------

A man about 50/60 years old, is seriously ill and is saying goodbye to his 
group of friends (barra de amigos). All the song is recalling the good times 
gone-by. He especially remembers his mother (santa viejita) and his little 
fianceй, both dead and whom he misses without finding comfort. It is, 
definitively, a sad quite melancholic goodbye.

---

Adiуs, muchachos, compaсeros de mi vida,
barra querida de aquellos tiempos.
Me toca a mн hoy emprender la retirada,
debo alejarme de mi buena muchachada.
Adiуs, muchachos. Ya me voy y me resigno...
Contra el destino nadie la talla...
Se terminaron para mн todas las farras,
mi cuerpo enfermo no resiste mбs...

Acuden a mi mente
recuerdos de otros tiempos,
de los bellos momentos
que antaсo disfrutй
cerquita de mi madre,
santa viejita,
y de mi noviecita
que tanto idolatrй...
їSe acuerdan que era hermosa,
mбs bella que una diosa
y que ebrio yo de amor,
le di mi corazуn,
mas el Seсor, celoso
de sus encantos,
hundiйndome en el llanto
me la llevу?

Es Dios el juez supremo.
No hay quien se le resista.
Ya estoy acostumbrado
su ley a respetar,
pues mi vida deshizo
con sus mandatos
al robarme a mi madre
y a mi novia tambiйn.
Dos lбgrimas sinceras
derramo en mi partida
por la barra querida
que nunca me olvidу
y al darles, mis amigos,
mi adiуs postrero,
les doy con toda mi alma
mi bendiciуn...

Tap to rate this tab
# A B C D E F G H I J K L M N O P Q R S T U V W X Y Z