Song name
# A B C D E F G H I J K L M N O P Q R S T U V W X Y Z

Julio Jaramillo - Guayaquil De Mis Amores tab

este es el requinto


E||--------------------------|
B||--10---10-----10------9---|
G||--11---11-----11-----10---|
D||--------------------------|
A||--------------------------|
E||--------------------------|


--7----7-------7-----6----|
--8----8-------8-----7----|
--------------------------|
--------------------------|
--------------------------|
--------------------------|



--7---8------------------|
--8--10---12--10---8-----|
----------12--11---9-----|
-------------------------|
-------------------------|
-------------------------|



--12--12-----12-----12---|
--13--13-----13-----13---|
-------------------------|
-------------------------|
-------------------------|
-------------------------|



--10---12--10--------------|
--12---13--12--13--12------|
---------------14--12------|
---------------------------|
---------------------------|
---------------------------|



------11--14---17-14---17-15-14-15-12----|
--12--12--16--------------------------12-|
--11-------------------------------------|
-----------------------------------------|
-----------------------------------------|
-----------------------------------------|


-----------12-------------|---------------|
-----------12-------------|---------------|
--------------------------|---------------|
--------------------------|---------------|
--------------------------|---------------|
--------------------------|---------------|

escuchen bien los cambios no es tan complicada.
la cancion la saque de oido, bien disfruten los acordes.

Ricardo R. "guitaristameno"
Gye-brxls
Tap to rate this tab
# A B C D E F G H I J K L M N O P Q R S T U V W X Y Z