Song name
# A B C D E F G H I J K L M N O P Q R S T U V W X Y Z

Julius Fucik - Entry Of The Gladiator tab

Entry of the Gladiators - Julius Fucik ( 1872 - 1916 )

Tabbed by Hashim Daghistani - classical_guitar_method@hotmail.com

Time signature - 4/4

Tuning - E A D G B E

||-----------------------|------------------|----------------------|
||---3---2---1--2--1--0--|------------------|--0-------------------|
||*----------------------|--3---2---1---2---|------3---2--3--2--1--|
||*--0-------------------|--0---------------|--0-------------------|
||-----------0-----------|----------0-------|----------0-----------|
||-----------------------|------------------|----------------------|

|------------------|--------------------|--------------------|
|------------------|--------------------|--------------------|
|--0---------------|--2---0--0----------|--2---0--0----------|
|--0---4---3---4---|------------1---2---|------------1---2---|
|----------0-------|------------0-------|------------0-------|
|------------------|--0-----------------|--0-----------------|

|--------------------------|----------------------|----------------------|
|--------------------------|--------0--2--0-------|--3---2---1--2--1--0--|
|--------------------0--1--|--2--3------------2---|----------------------|
|-----0--1--2--3--4--------|----------------------|--0-------------------|
|--4-----------------------|--------------0-------|----------0-----------|
|--------------------------|--0-------------------|----------------------|

|------------------|----------------------|------------------|
|------------------|--0-------------------|------------------|
|--3---2---1---2---|------3---2--3--2--1--|--0---------------|
|--0---------------|--0-------------------|--0---4---3---4---|
|----------0-------|----------0-----------|----------0-------|
|------------------|----------------------|------------------|

|-------------------|----------------|-----0----------------|
|------------0------|----------------|--2-----4--3--2---0---|
|-------------------|------------5---|----------------------|
|--2---2--2------2--|--3---3--3------|----------------------|
|-------------------|--6-------------|----------------------|
|--0----------------|----------------|--0-----------0-------|

|-------------------||-----2--2-----|-----------------|-----3--3-----|
|-------------------||-----3--3-----|-----------------|-----2--2-----|
|--2---------------*||--------------|-----------------|--0-----------|
|------5---4---2---*||--0--------0--|--0----0-1-2-3-4-|-----------4--|
|--0----------------||--------------|-----4-----------|--------------|
|-------------------||--------------|-----------------|--------------|

|------3--3--|-----3--3-----|-----3-----3--|-----2--2-----|------2--2--|
|------2--2--|-----2--2-----|-----2-----2--|-----3--3-----|------3--3--|
|------------|--4--------2--|--0--2--0-----|--------------|------------|
|--2---------|--------------|-----------2--|--0--------4--|------------|
|------------|--------------|--------------|--------------|--0---------|
|------------|--------------|--------------|--------------|------------|

|-----2--2-----|------------------|--------------|--------------|
|-----3--3-----|------------------|-----0--0-----|-----0--------|
|--------------|-------------0-2--|--------------|--------------|
|--0-----------|--0----0-2-4------|-----3--3-----|-----3-----0--|
|-----------0--|-----4------------|-----------2--|--5-----4-----|
|--------------|------------------|--4-----------|--------------|

|--------------|--------------|-------0-------0-|-------------||
|-----3-----3--|-----2-----2--|--3--2----3--2---|--3--3-3-3---||
|-----2-----2--|-----0-----0--|-----------------|-------------||
|--4-----0-----|--2-----------|--0-------0------|--0------0---||
|--------------|--------0-----|-----------------|-------------||
|--------------|--------------|-----------------|-------------||

Tabbed by Hashim Daghistani - classical_guitar_method@hotmail.com
   ***Please for any question, feel free to contact me***
Tap to rate this tab
 
# A B C D E F G H I J K L M N O P Q R S T U V W X Y Z