Song name
# A B C D E F G H I J K L M N O P Q R S T U V W X Y Z

July Productions - As Winter Closes In tab

"As Winter Closes In"
Performed by July Productions
>From the album available at www.julyproductions.com
Music by: M. July
Lyrics by: M. July
(c) 2002 July Productions
----------
Tabbed by Michael July 

Tab key:

h    =3D hammer on
p    =3D pull off
/    =3D slide
b    =3D bend=20
P.M. =3D Palm Mute

Riff 1 (w/Delay & Chorus):



e:------------------------------------------
B:------------------------------------------
G:-------------------------------4----------
D:---9--------9--------------------4--------
A:-0----0-0-0----------2--------------0-0---
E:---------------0-0-0----0-0-0-------------


Verse 1 (w/Delay & Chorus):

|Finger Picked Using Thumb and Pointer|
e:-------------------------------------
B:-10---9---10---10h12p10--9---7--9----
G:-------------------------------------
D:-------------------------------------
A:--7---7----7---7---------7---7--7----
E:-------------------------------------

Bridge (w/Delay & Chorus):

e:----------------------------
B:----------------------------
D:----------------------------
G:----------------------------
A:---3----2----0--------------
E:-0----0----0----0-3--2-3-2--

Chorus 1 (w/Distortion):
  
e:------------------------------------------
B:------------------------------------------
D:-2--2-2-2--2h4--4-------------------------
G:-2--2-2-2--2h4--4--2--2-2-2-2--2--2--2-2--
A:-0--0-0-0--0h2--2--2--2-2-2-2--2--2--2-2--
E:-------------------0--0-0-0-0--0--0--0-0--

Chorus 2 (Acoustic):


e:-0--0-0-0--0/2--2--0--0-0-0-0--0--0--0-0--
B:-0--0-0-0--0/2--2--0--0-0-0-0--0--0--0-0--
D:-2--2-2-2--2/4--4--1--1-1-1-1--1--1--1-1--
G:-2--2-2-2--2/4--4--2--2-2-2-2--2--2--2-2--
A:-0--0-0-0--0/2--2--2--2-2-2-2--2--2--2-2--
E:-0--0-0-0--0/2--2--0--0-0-0-0--0--0--0-0--

Solo 1 (Acoustic):
  
e:----------------------------------------------------------------------
B:------10-9-10-9-9-10-10/12-12------------16---------------------------
D:-----9---------------------------------16----16-----------------------
G:----9--------------------------------16---------16-----14-14--14--14--
A:-0---------------------------------14--------------14--12-12--11--11--
E:--------------------------------0-------------------------------------

Solo 2 (Acoustic):
  
e:----------------------------------------------------------------------
B:------10-9-10-9-9-10-10h12-12------------16-------------------17--17--
D:-----9---9--9-9-9--9--9-----9----------16----16---------------16--16--
G:----9--------------------------------16---------16-----14-14--14--14--
A:-0---------------------------------14--------------14--12-12--14--14--
E:--------------------------------0-------------------------------------
Tap to rate this tab
# A B C D E F G H I J K L M N O P Q R S T U V W X Y Z