Song name
# A B C D E F G H I J K L M N O P Q R S T U V W X Y Z

Jumbo - Despues tab

-=Intro=-    D   Gm  (x2)

-=Riff=-
    D           Gm          D           Gm              D
e|--2-------0-----------0---2-------0----------|-----0-----|]
B|------3-----------3-----------3--------------|--3-----3--|]
G|--------------3-----------------------3------|-----------|]
D|---------------------------------------------|-----------|]
A|---------------------------------------------|-----------|]
E|-----------------------------------------x2--|-----------|]
D                    Gm        
Después de no encontrar 
           D                 Gm    
una mejor razón para perder el tiempo
D                   Gm
me puse a platicarle a la pared
    D             Gm		 A7
y no encontré ningún pretexto...
    		 
para no hablar, para no ir por ti.

-=Riff=-
    D           Gm          D           Gm          D
e|--2-------0-----------0---2-------0-----------0------|]
B|------3-----------3-----------3-----------3-------3--|]
G|--------------3-----------------------3--------------|]
D|-----------------------------------------------------|]
A|-----------------------------------------------------|]
E|-----------------------------------------------------|]
D                Gm
Y siempre me detiene ese canal
        D		   Gm   
y el ruido que hay adentro
D                  Gm
  no se si el corazón está temblando
D                    Gm     A7
 pero en algún momento
                  A  
quisiera hablarte
                            
para decir que no puedo ir

-=Pre-Coro=-
D    D7    G    A#    A

-=Coro=-
    D               Gm
después, (nada es ahora) 
	     D    Gm
todo es después 
    D		     Gm
después, (nada es ahora) 
	     D    Gm
todo es después

-=Riff=-
    D           Gm          D           Gm          D
e|--2-------0-----------0---2-------0-----------0------|]
B|------3-----------3-----------3-----------3-------3--|]
G|--------------3-----------------------3--------------|]
D|-----------------------------------------------------|]
A|-----------------------------------------------------|]
E|-----------------------------------------------------|]

D                Gm
Después de no encontrar ese lugar
    D                     Gm   
en donde no pasa el tiempo
D                 Gm
me puse a platicar con la pared
   D               Gm            A7 
y no encontré ningún pretexto...
                  A 
para no hablarte
                                  
para no hablar, para no ir por ti.

-=Pre-Coro=-
D    D7    G    A#    A

-=Coro=-
    D               Gm
después, (nada es ahora) 
	     D    Gm
todo es después 
    D		     Gm
después, (nada es ahora) 
	     D    Gm
todo es después

-=Solo=-
    A7                                    D
e|--9h10-9-7---------7-----------------------------------------|]
B|-----------10-8-10---10-8-7-5-5/7-7-7-5-3-0-5/7-7-7-7-5-3-0--|]
G|-------------------------------------------------------------|]
D|-------------------------------------------------------------|]
A|-------------------------------------------------------------|]
E|-------------------------------------------------------------|]
    A7                                    D                   A7
e|--9h10-9-7---------7----------------------------------------5-3-5-3-5-3-5-3-5-0--|]
B|-----------10-8-10---10-8-7-5-5/7-7-7-5-3-0-5/7-7-7-7-5-3-3-3-3-3-3-3-3-3-3-3-2--|]
G|---------------------------------------------------------------------------------|]
D|---------------------------------------------------------------------------------|]
A|---------------------------------------------------------------------------------|]
E|---------------------------------------------------------------------------------|]

para no hablar, para no ir por ti.

-=Pre-Coro=-
D    D7    G    A#    A

-=Coro=-
    D			 Gm
después, (nada es ahora) 
		   D    Gm
todo es después 
    D	                 Gm
después, (nada es ahora) 
		    D             Gm
todo es después (nada es ahora)
		    D             Gm
todo es después (nada es ahora)
		   D   A#   D   A#        
todo es después
  D               A#            D
y no encontré ningún pretexto...

Any comment or correctio, please email me . . . ragarideath@hotmail.com
Tijuana, BC, México . . . Ramón Guillermo Galáz Rios 11/02/05'.
Tap to rate this tab
 
# A B C D E F G H I J K L M N O P Q R S T U V W X Y Z