Guitaretab - guitar tabs
Song name
# A B C D E F G H I J K L M N O P Q R S T U V W X Y Z

Jumbo - Monostransistor tab

x2 veces (bajo volumen)
x2 veces (alto volumen)

E-X--X-X--X--X-X--X--X-X--X--X-X--X--X-----------|
B-X--X-X--X--X-X--X--X-X--X--X-X--X--X-----------|
G-X--X-X--X--X-X--X--X-X--X--X-X--X--X-----------|
D-3--5-5--3--5-5--3--5-5--3--5-5--9--5-----------|
A-3--5-5--3--5-5--3--5-5--3--5-5--9--5-----------|
D-3--5-5--3--5-5--3--5-5--3--5-5--9--5-----------|


3 slides de

A-----------------|
D---3/22----------|


Prende el monotransistor.....
(X2)

E--X-X-X----X-X-X---X-X--|
B--X-X-X----X-X-X---X-X--|
G--X-X-X----X-X-X---X-X--|
D--3-0-3----5-3-5---4-5--|
A--3-0-3----5-3-5---4-5--|
D--3-0-3----5-3-5---5-5--|

E-X--X-X--X--X-X--X--X-X--X--X-X--X--X-----------|
B-X--X-X--X--X-X--X--X-X--X--X-X--X--X-----------|
G-X--X-X--X--X-X--X--X-X--X--X-X--X--X-----------|
D-3--5-5--3--5-5--3--5-5--3--5-5--9--5-----------|
A-3--5-5--3--5-5--3--5-5--3--5-5--9--5-----------|
D-3--5-5--3--5-5--3--5-5--3--5-5--9--5-----------|

[ Tab from: http://www.guitaretab.com/j/jumbo/89703.html ]
Nunca se te acabó......
E--X-X-X----X-X-X--X--X-|
B--X-X-X----X-X-X--X--X-|
G--X-X-X----X-X-X--X--X-|
D--3-0-3----5-3-5--4--5-|
A--3-0-3----5-3-5--4--5-|
D--3-0-3----5-3-5--4--5-|


Solo

E-----------------------------------------------|
B-----------------------------------------------|
G--/8-7-7-5\----/8h10-10p8-10p8-10p8--7-5-------|
D-----------------------------------------------|
A-----------------------------------------------|
D-----------------------------------------------|


Puedo volar....

E-X--X-X-X-X-X--X-X-X--X----X-X-X-X-X--X-X-X--X---|
B-X--X-X-X-X-X--X-X-X--X----X-X-X-X-X--X-X-X--X---|
G-X--X-X-X-X-X--X-X-X--X----X-X-X-X-X--X-X-X--X---|
D-5--3-5-3-5-5--3-5-3--5----3-5-3-5-5--3-5-3--5---|
A-5--3-5-3-5-5--3-5-3--5----3-5-3-5-5--3-5-3--5---|
D-5--3-5-3-5-5--3-5-3--5----3-5-3-5-5--3-5-3--5---|


E-X-X-X-X-X--X-X-X--X------X-X-X--X---|
B-X-X-X-X-X--X-X-X--X------X-X-X--X---|
G-X-X-X-X-X--X-X-X--X------X-X-X--X---|
D-3-5-3-5-5--3-5-3--5------3-5-3--4---|
A-3-5-3-5-5--3-5-3--5------3-5-3--4---|
D-3-5-3-5-5--3-5-3--5------3-5-3--4---|
Related for Monostransistor tab
Advertisement will be closed in 10 seconds