Song name
# A B C D E F G H I J K L M N O P Q R S T U V W X Y Z

Jump Little Children - Cathedrals tab

-----------------------------------------------------------------------------
                         Cathedrals-Jump Little Children
-----------------------------------------------------------------------------

Tabbed by: 13040181
Email: evy.andrews@yahoo.com

Tuning: Standard

Time Signature: Two measures in 3/4 time and one measure in 2/4 time.
The beat should be one-two-three-one-two-three-one-two with stressed beats on beat one 
of every measure.

Or you can think about it as one-two-three-four-five-six-seven-eight with stressed beats 
on beat one, four and seven.

Intro:

e|--------------------------------|
B|--------------------------------|
G|--------------------------------| 2x
D|2-2-2-2-2-2-2-2-4-4-4-4-4-4-4-4-|
A|3-3-3-3-3-3-3-3-3-3-3-3-3-3-3-3-|
E|--------------------------------|

Verse 1:

In the shadows of tall buildings of fallen angels on the ceilings
e|--------------------------------2-2-2-2-2-2-2-2-----------------|
B|--------------------------------2-2-2-2-2-2-2-2-----------------|
G|--------------------------------0-0-0-0-0-0-0-0-----------------|
D|2-2-2-2-2-2-2-2-4-4-4-4-4-4-4-4-0-0-0-0-0-0-0-0-2-2-2-2-2-2-2-2-|
A|3-3-3-3-3-3-3-3-3-3-3-3-3-3-3-3-2-2-2-2-2-2-2-2-3-3-3-3-3-3-3-3-|
E|--------------------------------3-3-3-3-3-3-3-3-----------------|

Oily feathers in bronze and concrete faded colors, pieces left incomplete
e|--------------------------------2-2-2-2-2-2-2-2-----------------|
B|--------------------------------2-2-2-2-2-2-2-2-1-1-1-1-1-1-1-1-|
G|--------------------------------0-0-0-0-0-0-0-0-2-2-2-2-2-2-2-2-|
D|2-2-2-2-2-2-2-2-4-4-4-4-4-4-4-4-0-0-0-0-0-0-0-0-2-2-2-2-2-2-2-2-|
A|3-3-3-3-3-3-3-3-3-3-3-3-3-3-3-3-2-2-2-2-2-2-2-2-----------------|
E|--------------------------------3-3-3-3-3-3-3-3-----------------|


Pre-Chorus:

The line moves slowly past the electric fence
e|----------------2-2-2-2-2-2-2-2-|
B|1-1-1-1-1-1-1-1-3-3-3-3-3-3-3-3-|
G|2-2-2-2-2-2-2-2-2-2-2-2-2-2-2-2-|
D|2-2-2-2-2-2-2-2-----------------|
A|--------------------------------|
E|--------------------------------|

Across the borders between continents
e|2-2-2-2-2-2-2-2-----------------|
B|2-2-2-2-2-2-2-2-2-2-2-2-2-2-2-2-|
G|0-0-0-0-0-0-0-0-2-2-2-2-2-2-2-2-|
D|0-0-0-0-0-0-0-0-1-1-1-1-1-1-1-1-|
A|2-2-2-2-2-2-2-2-----------------|
E|3-3-3-3-3-3-3-3-----------------|

Chorus:

In the cathedrals of New York and Rome
e|----------------2-2-2-2-2-2-2-2-|
B|1-1-1-1-1-1-1-1-3-3-3-3-3-3-3-3-|
G|2-2-2-2-2-2-2-2-2-2-2-2-2-2-2-2-|
D|2-2-2-2-2-2-2-2-----------------|
A|--------------------------------|
E|--------------------------------|

There is a feeling that you should just go home
e|2-2-2-2-2-2-2-2-----------------|
B|2-2-2-2-2-2-2-2-2-2-2-2-2-2-2-2-|
G|0-0-0-0-0-0-0-0-2-2-2-2-2-2-2-2-|
D|0-0-0-0-0-0-0-0-1-1-1-1-1-1-1-1-|
A|2-2-2-2-2-2-2-2-----------------|
E|3-3-3-3-3-3-3-3-----------------|

And spend a life time finding out just where that
e|----------------2-2-2-2-2-2-2-2-|
B|1-1-1-1-1-1-1-1-3-3-3-3-3-3-3-3-|
G|2-2-2-2-2-2-2-2-2-2-2-2-2-2-2-2-|
D|2-2-2-2-2-2-2-2-----------------|
A|--------------------------------|
E|--------------------------------|

Is................
e|2-2-2-2-2-2-2-2-|
B|2-2-2-2-2-2-2-2-|
G|0-0-0-0-0-0-0-0-|
D|0-0-0-0-0-0-0-0-|
A|2-2-2-2-2-2-2-2-|
E|3-3-3-3-3-3-3-3-|

Four Measure Break:

e|--------------------------------|
B|--------------------------------|
G|--------------------------------| 2x
D|2-2-2-2-2-2-2-2-4-4-4-4-4-4-4-4-|
A|3-3-3-3-3-3-3-3-3-3-3-3-3-3-3-3-|
E|--------------------------------|

Verse 2: Same as verse 1

In the shadows of tall buildings
The architecture is slowly peeling
Marble statues and glass dividers
Someone is watching all of the outsiders

Pre-Chorus:

The line moves slowly through the numbered gate
Past the mosaic of the head of state

Chorus:

Verse 3: Same as verse 1

In the shadows of tall buildings
Of open arches endlessly kneeling
Sonic landscapes echoing vistas
Someone is listening from a safe distance

Pre-Chorus:

The line moves slowly into a fading light
A final moment in the dead of the night

Chorus 2x:

Outro:

e|--------------------------------|
B|--------------------------------|
G|--------------------------------| 2x
D|2-2-2-2-2-2-2-2-4-4-4-4-4-4-4-4-|
A|3-3-3-3-3-3-3-3-3-3-3-3-3-3-3-3-|
E|--------------------------------|

End:

e|2-2-2-2-2-2-2-2-|
B|2-2-2-2-2-2-2-2-|
G|0-0-0-0-0-0-0-0-|
D|0-0-0-0-0-0-0-0-|
A|2-2-2-2-2-2-2-2-|
E|3-3-3-3-3-3-3-3-|

These are also the chords for the song:

Keep in mind the strumming is continuous downward strums in 3/4 3/4 2/4 time

Intro: C2 Dsus C2 Dsus

Verse 1:
C2             Dsus                  G                C2
    In the shadows of tall buildings of fallen angels on the ceilings
C2                Dsus                  G              E
    Oily feathers in bronze and concrete faded colors, pieces left incomplete

Pre-Chorus:
Am                     D
The line moves slowly past the electric fence
G                  E
Across the borders between continents

Chorus:
Am                D               G
In the cathedrals of New York and Rome
                   E                       Am
There is a feeling that you should just go home
                     D                           G
And spend a lifetime finding out just where that is

Four Measure Break: C2 Dsus C2 Dsus

Verse 2: Same as Verse 1

In the shadows of tall buildings
The architecture is slowly peeling
Marble statues and glass dividers
Someone is watching all of the outsiders

Pre-Chorus:

The line moves slowly through the numbered gate
Past the mosaic of the head of state

Chorus:

Verse 3: Same as verse 1

In the shadows of tall buildings
Of open arches endlessly kneeling
Sonic landscapes echoing vistas
Someone is listening from a safe distance

Pre-Chorus:

The line moves slowly into a fading light
A final moment in the dead of the night

Chorus 2x:

Outro: C2 Dsus C2 Dsus G
Tap to rate this tab
# A B C D E F G H I J K L M N O P Q R S T U V W X Y Z