Song name
# A B C D E F G H I J K L M N O P Q R S T U V W X Y Z

Jumpdown - Beginners Luck tab

JumpDOWN,Beginners Luck.
 Tabbed by Josh Gentry,JDGuitar@guitar.com.
  
#----------------------------------PLEASE NOTE--------------------------------#
#This file is the author\'s own work and represents their interpretation of the#
#song. You may only use this file for private study, scholarship, or research.#
#-----------------------------------------------------------------------------#

Author/Artist: JumpDOWN
Title: Beginners Luck
Transcribed by: Josh Gentry
Email: houhou333@aol.com
j/jumpdown/beginners_luck.tab

This is jumpdowns 1st song {its kinda short}and they are an awesome  upcoming punk band
email me for more info on them
GOOOOOO JumpDOWN

-\\|/--------------------------------------------------------------------------
-\\|/--------------------------------------------------------------------------
-\\4/--------------------------------------------------------------------------
-/4\\---9---9---8---8---9---9---8---8---11-11-11-11-11--9-9-9-9-9-7-7-7-7-7----
-/|\\-9---9---9---9---9---9---9---9-----9---------------7---------5-5-7-7-7----
-/|\\--------------------------------------------------------------------------
                                                                              

-------------------------------------------------------------|----------------
------------------------------------------------------------*|----------------
-------------------------------------------------------------|----------------
--5-5-5-5-5-5-5-5--------------------------------------------|----------------
--3-3-3-3-3-3-3-3--5-5-5-5-5-5-5-7-7-7-7-7-7-3-3-3-3-3-3-3--*|----------------
-------------------3-3-3-3-3-3-3-5-5-5-5-5-5-1-1-1-1-1-1-1---|----------------
                                                              x3              

 
:: Ultimate Guitar Archive :: 
http://www.ultimate-guitar.com 



Tap to rate this tab
# A B C D E F G H I J K L M N O P Q R S T U V W X Y Z