Song name
# A B C D E F G H I J K L M N O P Q R S T U V W X Y Z

Jun Senoue - White Space Medley tab

Song: White Space Medley
Artist: Jun Senoue
Album: Blue Blur : Sonic Generations Original Soundtrack [Disc 3]

Tabbed by: Luke Stott (Supersonic104)

-----------------------------------------------------------------------

Disclaimer

I do not own the song or any of its respective rights. This tab has been ear-transcribed.


-----------------------------------------------------------------------

Original song can be found here:
http://www.youtube.com/watch?v=IhxxHDdNXUY

NB/
All sections of the song are to be played twice. Listen to the song for rhythm and timing.


-----------------------------------------------------------------------

Intro

e |----------------------------------------------------------------------|
B |-13--11--10--13-11-11-10-----------10--8------------------------------|
G |-------------------------12-12------------10-------9-9-10-11-11-12-12-|
D |-------------------------------10------------10-12--------------------|
A |----------------------------------------------------------------------|
E |----------------------------------------------------------------------|

e |-----------------------------------------------------------------|
B |-13--11--10--13-11-11-10-----------10--8-------------------------|
G |-------------------------12-12------------10-------9--10--11--12-|
D |-------------------------------10------------10-12---------------|
A |-----------------------------------------------------------------|
E |-----------------------------------------------------------------|

e |-------------------------------|
B |-------10-8—10-11-13--13-13-13-|
G |-10-12-------------------------|
D |-------------------------------|
A |-------------------------------|
E |-------------------------------|


Green Hill Zone

e |-----------------------------12-10-----------------|
B |-13-10--13-12-13-12------10---------13-12-13-12----|
G |--------------------12--------------------------12-|
D |---------------------------------------------------|
A |---------------------------------------------------|
E |---------------------------------------------------|

e |------------------------------------------------|
B |-13-10--13-12-13-12------10--10----10-8-10-8----|
G |--------------------12----------10--------------|
D |---------------------------------------------10-|
A |------------------------------------------------|
E |------------------------------------------------|

e |-----------------|
B |--------------11-|
G |-----7~~~10~~~---|
D |-8~~~------------|
A |-----------------|
E |-----------------|


Chemical Plant

NB/ Just repeat the main chords; listen to the song for rhythm.

e |----------------------------|
B |----------------------------|
G |-14--14-14---1414-1414-1416-| x2
D |-14--14-14---1414-1414-1416-|
A |-12--12-12---1212-1212-1214-|
E |----------------------------|

e |-----------|
B |-----------|
G |-14--14-14-| x2
D |-14--14-14-|
A |-12--12-12-|
E |-----------|

e |----------------------------|
B |----------------------------|
G |-14--14-14---1414-1414-1416-|
D |-14--14-14---1414-1414-1416-|
A |-12--12-12---1212-1212-1214-|
E |----------------------------|

e |-------------------------------------|
B |-------------------------------------|
G |-14--14-14-----------14--14-14-16-16-|
D |-14--14-14-----------14--14-14-16-16-|
A |-12--12-12-----------12--12-12-14-14-|
E |-------------------------------------|

OR here’s the lead riff. Again, listen to the song for rhythm and timing.

e |-----------------------------------------------------------------------|
B |-------17-1717-1515\13-13------------17-1717-1515\13-13-15-13-15-17-13-|
G |-12h14-------------------------12h14-----------------------------------|
D |-----------------------------------------------------------------------|
A |-----------------------------------------------------------------------|
E |-----------------------------------------------------------------------|

e |-------|
B |-------|
G |-14-14-|
D |-------|
A |-------|
E |-------|

e |--------------------------------------------------------------------|
B |-------17-1717-1515\13-13------------17-1717-1515\13-13-15-13-15-17-|
G |-12h14-------------------------12h14--------------------------------|
D |--------------------------------------------------------------------|
A |--------------------------------------------------------------------|
E |--------------------------------------------------------------------|


Sky Sanctuary

e |----------15-13-------------15-13-------------15-13----------------|
B |-13-12----------15-13-12----------15-13-12----------15-13-12-------|
G |-------12----------------12----------------12----------------12-12-|
D |-------------------------------------------------------------------|
A |-------------------------------------------------------------------|
E |-------------------------------------------------------------------|

e |------------------------------------------------------------13--17-----|
B |---------------------------13~~~------------------------13----------15-|
G |------------10~~~-9~~-----------------10~~~-9~~-----14-----------------|
D |-10~~~-10h12----------10~~-------10h12----------10---------------------|
A |-----------------------------------------------------------------------|
E |-----------------------------------------------------------------------|


Speed Highway

e |----------------------------------------------|
B |----------------------------------------------|
G |-9-9-991011-9-9-9-11-9-11-9-9-991011-9-9-9-11-| x2
D |-9-9-991011-9-9-9-11-9-11-9-9-991011-9-9-9-11-|
A |-7-7-778-9—-7-7-7-9--7-9--7-7-778-9—-7-7-7-9--|
E |----------------------------------------------|

e |-------------------------|
B |-------------------------|
G |-------------------------|
D |-7-2-77-88-99-1010-11-12-|
A |-7-2-77-88-99-1010-11-12-|
E |-5-0-55-66-77-8-8--9--10-|


City Escape

e |-15--15-15-13-12----12------------------------------17-15----15----|
B |-----------------15----13------13-17-15----15----15-------17----17-|
G |--------------------------14------------17----17-------------------|
D |-------------------------------------------------------------------|
A |-------------------------------------------------------------------|
E |-------------------------------------------------------------------|

e |-15--15-15-17----15---------------------------------17-15----15-17-|
B |--------------17----17-13------13-17-15----15----15-------17-------|
G |--------------------------14------------17----17-------------------|
D |-------------------------------------------------------------------|
A |-------------------------------------------------------------------|
E |-------------------------------------------------------------------|

e |----------------------------|
B |----------------------------|
G |----------------------------|
D |----------------------------|
A |----------------------------|
E |-1-1-1-3-3-3--8-8-888-6-1-1-|


Seaside Hill

e |---------------12-12-----------14~~----------15--15-14-12-14-|
B |-15~~----------------15-14-15-------13-12-13-----------------|
G |------14-13-14-----------------------------------------------|
D |-------------------------------------------------------------|
A |-------------------------------------------------------------|
E |-------------------------------------------------------------|

e |-17~~~15~~~~~17~~~-------14~~~-14-14-15-12~~~~-|
B |----------------------15-----------------------|
G |-------------------16--------------------------|
D |-----------------------------------------------|
A |-----------------------------------------------|
E |-----------------------------------------------|

e |--------------------------|
B |-15------13------11-11-10-|
G |-----14------12-----------|
D |--------------------------|
A |--------------------------|
E |--------------------------|


Crisis City

e |----------------------------------------------------|
B |----------------------------------------------------|
G |---------------------------8~~~~~~~~~~-10~~~~~~~~~~-|
D |-10~~~~~~~~~~-12~~~~~~~~~~--------------------------|
A |----------------------------------------------------|
E |----------------------------------------------------|

e |------------------------------------------------|
B |--------------------------------------11---13---|
G |------12---10---7---7-8-7--------12-------------|
D |-10-----------------------8-10------------------|
A |------------------------------------------------|
E |------------------------------------------------|

e |------------------------------------------|
B |-11-11-10------------------------11-11-11-|
G |----------10-12---12---12---12------------|
D |------------------------------------------|
A |------------------------------------------|
E |------------------------------------------|


Rooftop Run

e |-----------------------------------------------------------------------|
B |-------------------14-------------------14-15-14-----------------------|
G |-14-14-14-14-14-16----14-14-14-14-14-16----------16-14~~~-14~~~-13~~~--|
D |-----------------------------------------------------------------------|
A |-----------------------------------------------------------------------|
E |-----------------------------------------------------------------------|

e |------------------------------------------------|
B |-17~~~----17-15~~~-12-14-15~~~-15-17-15-14~~~~~-|
G |-------14---------------------------------------|
D |------------------------------------------------|
A |------------------------------------------------|
E |------------------------------------------------|

e |----17-------------------19---21-19-17-16-17-|
B |-17----17p15-14~~~-17h19---------------------|
G |---------------------------------------------|
D |---------------------------------------------|
A |---------------------------------------------|
E |---------------------------------------------|


Planet Wisp

e |-------------------------------------------------------------|
B |-------------------------------------------------------------|
G |---------14~~~~~~~~~~~-11-9~~~~~~-----------11~~~~~~~~~~-9---| x2
D |-9-11-12----------------------------9-11-12----------------9-|
A |-------------------------------------------------------------|
E |-------------------------------------------------------------|

e |-14--------------------------|
B |----14-----------------------|
G |-------15--------------------|
D |----------16-----------------|
A |-------------16--------------|
E |----------------15-14~~~~~~~-|


Casino Night

NB/ This part has a piano and saxophone playing alongside each other, it’s up to you 
which part you follow. But either way, when both reach the end of their bars, the bass 
plays. Listen to the song for rhythm and timing.

Piano

e |-----------------------------------------------------------------------|
B |-----------------------------9-9-----------------------10-10-----------|
G |-9-9-9~~~~~~~~~~-9-10-10-9-9-----9~~~~~~~~~~~~~-9-10-9-------9---------|
D |---------------------------------------------------------------10~~~~~~|
A |-----------------------------------------------------------------------|
E |-----------------------------------------------------------------------|

e |----------------------------------------------|
B |----------------------------------------------|
G |-------------8-------------------9-10-9-10-12-|
D |-10-10-12-10---12-10~~~~~~~~~~~~--------------|
A |----------------------------------------------|
E |----------------------------------------------|

Saxophone

e |-------------------|
B |-------------------|
G |-9--9--8b--9--9-99-| x3
D |-------------------|
A |-------------------|
E |-------------------|

e |------------------|
B |-------------8--8-|
G |-8--8--7b--8------|
D |------------------|
A |------------------|
E |------------------|

Bass

e |-----------------------|
B |-----------------------|
G |-----------------------|
D |-5-3--2----------------|
A |--------5--3-3-2-------|
E |------------------5--3-|


Death Egg Robot

e |-----------------------------------------------------------------------|
B |-------------13~~~~~~~~~-15~~~~~~~~~-------13~~~~~~~~~-----------------|
G |-14~~~~~~~~~-------------------------16~~~-------------14~~~-16~~~~~~~-|
D |-----------------------------------------------------------------------|
A |-----------------------------------------------------------------------|
E |-----------------------------------------------------------------------|

e |-------------------|
B |-------------------|
G |-12~~~~~~-14~~~~~~-|
D |-------------------|
A |-------------------|
E |-------------------|

e |-15-17-------------------|     e |-16--16--16--16-|
B |-------17~~~~~~~~~~~~~~~-|     B |----------------|
G |-------------------------| x2  G |----------------|
D |-------------------------|     D |----------------|
A |-------------------------|     A |----------------|
E |-------------------------|     E |----------------|


Perfect Chaos

NB/ Quickly down tune to Drop D during the drum interlude.

e |---------------------------------------------------------------------|
B |---------------------------------13~~~~~~~~~~~~~~~~~~----15-13-12-13-|
G |-14~~~~~~~~~~~~~~-13-16-14-13-14----------------------14-------------|
D |---------------------------------------------------------------------|
A |---------------------------------------------------------------------|
D |---------------------------------------------------------------------|

e |-----------------------------------------------------------------------|
B |-16~~~~~~~~-12~~~~~~~~~~-15~~~~~~~~~~--15-13~~~~~~---------------------|
G |---------------------------------------------------13~~~~~~-16~~~~~~~~-|
D |-----------------------------------------------------------------------|
A |-----------------------------------------------------------------------|
D |-----------------------------------------------------------------------|

e |--------------------------|
B |--------------------------|
G |--------------------------|
D |-7~~~~~7--7~~~~~7—1-2-2~~-|
A |-7~~~~~7--7~~~~~7—1-2-2~~-|
D |-7~~~~~7--7~~~~~7—1-2-2~~-|


Dr. Eggman

NB/ The single notes are to be palm-muted and the chords played open.

e |---------------------------------|
B |---------4-6---------4-6---------|
G |---4-6---------4-6---------------| x2
D |-4-----4-----4-----4-------7~~-9-|
A |---------------------------7~~-9-|
D |---------------------------7~~-9-|

e |-------------------------------|
B |---------4-6-------------------|
G |---4-6---------4-6---7-6-7~~-4-|
D |-4-----4-----4-----4-----7~~-4-|
A |-------------------------5~~-2-|
D |-------------------------------|

e |--------------------------------------------------|
B |--------------------------------------------------|
G |-9--9~~~~~~-9-6-4-6-6-6-6-9--9~~~~~~-9-6-4-9-9-11-|
D |-9--9~~~~~~-9-6-4-6-6-6-6-9--9~~~~~~-9-6-4-9-9-11-|
A |-7--7~~~~~~-7-4-2-4-4-4-4-7--7~~~~~~-7-4-2-7-7-9--|
D |--------------------------------------------------|


Metal Sonic

e |----------------------------------------|
B |-------------------------------------13-|
G |-14---12-14---12-14---12-14-14-14-14----| x2
D |----------------------------------------|
A |----------------------------------------|
D |----------------------------------------|

e |-17--15--------------------------------------------|
B |---------17--16--15p13-13--------------13----------|
G |------------------------------12-14-12----14-12-14-|
D |---------------------------------------------------|
A |---------------------------------------------------|
D |---------------------------------------------------|

e |-17--15-----------------------|
B |---------17--16—15~~~~-17~~~~-|
G |------------------------------|
D |------------------------------|
A |------------------------------|
D |------------------------------|


Shadow

NB/ The synthesised notes are difficult to translate to guitar, so I just followed 
roughly what the bass is doing in this section.

e |--------------------------|
B |--------------------------|
G |--------------------------| x4
D |--------------------------|
A |-4--4-4-5~~---------------|
D |------------0-0-0-0-1-1-1-|

e |---------------------------------|
B |---------------------------------|
G |---------------------------------|
D |---------------------------------|
A |-4-4-4-4-5-5-5-5-6-6-6-6-7-7-7-7-|
D |---------------------------------|


Silver

e |-9h11-11~-13--13-13-|
B |--------------------|
G |--------------------| x3
D |--------------------|
A |--------------------|
D |--------------------|

e |-4-6-8-8-9-9-8-6-|
B |-----------------|
G |-----------------|
D |-----------------|
A |-----------------|
D |-----------------|

e |-9h11-11~-13--13-13-|
B |--------------------|
G |--------------------| x3
D |--------------------|
A |--------------------|
D |--------------------|

e |-4-6-8-8-9-9-8-6-|
B |-----------------|
G |-----------------|
D |-----------------|
A |-----------------|
D |-----------------|

e |-4h6-6-4h6-6-6--4h6-6-4h6-6-6-|
B |------------------------------|
G |------------------------------|
D |------------------------------|
A |------------------------------|
D |------------------------------|
Tap to rate this tab
# A B C D E F G H I J K L M N O P Q R S T U V W X Y Z