Song name
# A B C D E F G H I J K L M N O P Q R S T U V W X Y Z

Junction 18 - Lost In Adeline tab

----0--------0---------0--
---3-3------3-3-------3-3-
--2--------2---------2----
----------3---------------
-3------------------0-----x2


-----------------------------------------------
-----------------------------------------------
-----------------------------------------------
-0-0-0-0-0-0------3-3-3-3-3-3------------------
-0-0-0-0-0-0------3-3-3-3-3-3------------------
-0-0-0-0-0-0------1-1-1-1-1-1------------------


--------------------------------------------------------------------------
--------------------------------------------------------------------------
-5-5-5-5-5-5--------------------------------------------------------------
-5-5-5-5-5-5----3-3-3-3-3-3---------7-7-7-7-7-7----3-3-3-3-3-3------------
-3-3-3-3-3-3----3-3-3-3-3-3---------7-7-7-7-7-7----3-3-3-3-3-3------------
----------------1-1-1-1-1-1---------5-5-5-5-5-5----1-1-1-1-1-1------------
Tap to rate this tab
# A B C D E F G H I J K L M N O P Q R S T U V W X Y Z