Song name
# A B C D E F G H I J K L M N O P Q R S T U V W X Y Z

June Of 44 - June Miller tab

Band: June of 44
Track: June Miller
Album: Engine Takes To The Water (1996)

Myspace: http://www.myspace.com/giugnodel44
Wikipedia:http://en.wikipedia.org/wiki/June_of_44

Tabbed by Josh: joshua.borger@mci2000.com
additional corrections: mito.gegic@gmail.com

Standard Tuning

g1 (the 7ís are palm muted)
e--------------------------------                 ----------------|
b--------------------------------                 ----------------|
g--------------------------------  play 6x        -----------8b---|
d--------------5s12s11-----------  then...        ------7---------|
a---7-----5-0--------------------                 ------7---------|
e-0---3/5------------------------                 -0--------------|

Chorus?
e----------------------------------          ---------------------------|
b----------------------------------          -----3b--------------------|
g--------1----------------1--------          ---------------------------|
d-----2-----2---------2------2-----     7x   -2---------6-6-6-7-7-7-7-6-|   5x
a----------------------------------          -2---------6-6-6-7-7-7-7-6-|
e-0--------------0-----------------          -0---------4-4-4-5-5-5-5-4-|

little bridge
e-----------------------------------------------------------------------------------------|
b-----------------------------------------------------------------------------------------|
g-----------------------------------------------------------------------------------------|
d--------------------------------------------------------------------0------------0-------|
a-----------------------------------------------------------------0-----0------0-----0----|
e-0-0-0-0-0-0-0-0-0-0-0-0-0-0-0-0-4-4-4-4-4-4-4-4-5------------5--------------------------|

bridge cont.
e------------------------------------------------------------|
b------------------------------------------------------------|
g------------------------------------------------------------|      part on the low e string
d------------------------------------------------------------|  10x, and end by hitting harmonics
a------------------------------------------------------------|      on the 12th fret
e-0-12-12-0-12-0-12-0-12-0-12-12-0-12-0-12-0-12--------------|

do the opening riff  4x, and then the chorus, and the outro which is the chorus
separated by little silences.
Tap to rate this tab
 
# A B C D E F G H I J K L M N O P Q R S T U V W X Y Z