Song name
# A B C D E F G H I J K L M N O P Q R S T U V W X Y Z

June Of 44 - Air 17 tab

Band: June of 44
Track: Air #17
Album: Four Great Points (1998)

Myspace: http://www.myspace.com/giugnodel44
Wikipedia: http://en.wikipedia.org/wiki/June_of_44

Tabbed by Josh: joshua.borger@mci2000.com
additional correcting by Mito: mito.gegic@gmail.com

Standard Tuning

main riff
right after ''...in the stacks of a flooded library...''
e--------------------------------------------------------|
b--------------3-----------1-----------------------------|
g-----------0----0-----4---------------------------2b-0--|
d--------4----------4---------3----------0h2h3-----------|
a----2--------------------------------2------------------|
e-3--------------------------------0---------------------|
variation
e--------------------------------------------------------|
b-3---------3--------------------------------------------|
g---0----4----0-----------------------------4b-----------|
d-----4-----------1p0----------------2h3s5-----5---------|
a---------------------3p2----------2---------------------|
e--------------------------------0-----------------------|

1st Change
e--------------------|
b----------8-----7---|
g--------0---0-------|
d------7-------7-----|
a----6---------------|
e--7-----------------|

Drum riff G1
e--------------------------------------------------------------------------------|
b--------------------------------------------------0--------------------0--------|
g----------4--4-------------4--4-----------------5---5----------------5---5------|
d-------5-------5---------5-------5-----------6---------6-----------6-------6----|
a----6------------6----6------------6------7---------------7------7-----------7--|
e-7------------------7-------------------7----------------------7----------------|
Just before the last change, hit the low E string and strum the rest of the strings



Drum riff G1  (with a slight variation when the bass comes in)
e---------------------------------|
b---------------------------------|
g---------------------------------|
d-14h16--17-16-14b--12s14--7s9----|
a---------------------------------|
e---------------------------------|

Last Change G1 (not sure about this part exactly)
e-------------------------------------------------------|
b----------5--5----------------------------------7--7---|
g-------5-------5-----------5--5--------------5---------|
d----6------------6-------6------6---------5------------|
a-7-----------------7---7----------7----7---------------|
e---------------------5---------------------------------|

Last Change G2
e----------------------------|
b------8-X-X-X-8-7-----------|
g-7s9--9-X-X-X-9-9--5--------|
d---------------------6------|
a-----------------------7----|
e----------------------------|

G1 plays main riff while G2 plays...
e---------------------------------------|
b---------------------5----------7--5---|
g-12b--s----------------0---------------|
d-----------5s7-----------7--5----------|
a---------------------------------------|
e---------------------------------------|
Tap to rate this tab
 
# A B C D E F G H I J K L M N O P Q R S T U V W X Y Z