Song name
# A B C D E F G H I J K L M N O P Q R S T U V W X Y Z

June - Patrick tab

-------------------------------------------------------------------------------
			     PATRICK - Teenage Bottlerocket
-------------------------------------------------------------------------------
Tabbed by: Curtis Fisher
Email: cmf@phnxmusic.net

Tuning: Standard

..1,2,3,4!

e|---------------------------------------------------------------------------|
B|---------------------------------------------------------------------------|
G|--------2-77777-9----------------------------------------------------------|
D|--44444-2-77777-9--[x4]----------------------------------------------------|
A|--44444-0-55555-7----------------------------------------------------------|
E|--22222--------------------------------------------------------------------|

e|---------------------------------------------------------------------------|
B|---------------------------------------------------------------------------|
G|-----------77777777-44444444-----------------------------------------------|
D|--44444444-77777777-44444444--[x4]-----------------------------------------|
A|--44444444-55555555-22222222-----------------------------------------------|
E|--22222222-----------------------------------------------------------------|

e|---------------------------------------------------------------------------|
B|---------------------------------------------------------------------------|
G|--------2-77777-9----------------------------------------------------------|
D|--44444-2-77777-9--[x4]----------------------------------------------------|
A|--44444-0-55555-7----------------------------------------------------------|
E|--22222--------------------------------------------------------------------|

e|---------------------------------------------------------------------------|
B|---------------------------------------------------------------------------|
G|--44444--------------------------------------------------------------------|
D|--44444--------------------------------------------------------------------|
A|--22222--------------------------------------------------------------------|
E|---------------------------------------------------------------------------|


| /  slide up
| \  slide down
| h  hammer-on
| p  pull-off
| ~  vibrato
| +  harmonic
| x  Mute note
===============================================================================
Tap to rate this tab
# A B C D E F G H I J K L M N O P Q R S T U V W X Y Z