Song name
# A B C D E F G H I J K L M N O P Q R S T U V W X Y Z

June - My Side Of The Story tab

June – My Side Of The Story
Tuning: Eb
Tabbed by: Nick Holbrook (njho@umich.edu)

INTRO
eb--1-1---0-0--0---0--0-0-0-------|-------------|
Bb--1-1---1-1--1---0--0-0-0-------|-------------|
Gb--2-2---0-0--0---0--0-0-0-------|-------------|
Db--3-3---2-2--2---0--0-0-0----x3-|---3~--------|
Ab--------3-3--3---2--2-2-2-------|---3~--------|
Eb-----------------3--3-3-3-------|---1~--------|

VERSE
“Well keep excuses…”
eb--1-1---0-0--0---0--0-0-0-------|-------------|
Bb--1-1---1-1--1---0--0-0-0-------|-------------|
Gb--2-2---0-0--0---0--0-0-0-------|-------------|
Db--3-3---2-2--2---0--0-0-0----x3-|---3~--------|
Ab--------3-3--3---2--2-2-2-------|---3~--------|
Eb-----------------3--3-3-3-------|---1~--------|

VERSE PART 2
“I’ll catch you off guard…”
eb------------------------------------|
Bb------------------------------------|
Gb--------2---5--5-5------------------|
Db--3-3---2---5--5-5---5--5-5-5----x3-|
Ab--3-3---0---3--3-3---5--5-5-5-------|
Eb--1-1----------------3--3-3-3-------|

PRE-CHORUS
“…write them…”
eb----------------------------------------|
Bb----------------------------------------|
Gb----------------------------------------|
Db--2-2-2--3-3-3--5-5-5-5-5-5-5-5---------|
Ab--2-2-2--3-3-3--5-5-5-5-5-5-5-5---------|
Eb--0-0-0--1-1-1--3-3-3-3-3-3-3-3---------|

CHORUS x2
“I am the reason…”
eb---------------------------------------------------------------------|
Bb---------------------------------------------------------------------|
Gb-------------------5-5-5-5-5-5-5-5-----------------------------------|
Db--3-3-3-3-3-3-3-3--5-5-5-5-5-5-5-5--5-5-5-5-5-5-5--7-7-7-7-7-2-2-2---|
Ab--3-3-3-3-3-3-3-3--3-3-3-3-3-3-3-3--5-5-5-5-5-5-5--7-7-7-7-7-2-2-2---|
Eb--1-1-1-1-1-1-1-1-------------------3-3-3-3-3-3-3—-5-5-5-5-5-0-0-0-—-|

VERSE PART 2 x5
Lyrics come in after 2 times

Interlude
“Stop running your mouth off…”
eb--------------------|
Bb--------------------|
Gb--------------------|
Db--7~--5~--4~--3~----|
Ab--7~--5~--4~--3~----|
Eb--5~--3~--2~--1~----|

PRE-CHORUS x2

CHORUS x2

BRIDGE
“Been missing…”
eb----------------------------------------|
Bb----------------------------------------|
Gb----------------------------------------|
Db--3-3-3-3-3-3-3-3---5-5-5-5-5-5-5-5-----|
Ab--3-3-3-3-3-3-3-3---5-5-5-5-5-5-5-5-----|
Eb--1-1-1-1-1-1-1-1---3-3-3-3-3-3-3-3-----|

“No, no, no…”
eb------------------------------------------------|
Bb--r---------------------------------------------|
Gb--e-------------5-5-5-5-------------------------|
Db--s---7-7-7-7---5-5-5-5---5-5-5-5---3-3-3-3-----|
Ab--t---7-7-7-7---3-3-3-3---5-5-5-5---3-3-3-3-----|
Eb------5-5-5-5-------------3-3-3-3---1-1-1-1-----|

“Sit in your apartment…”
eb------------------------------------------|
Bb------------------------------------------|
Gb----------------------5-5-5-5-5-5-5-5-----|
Db--7-7-7-7---5-5-5-5---5-5-5-5-5-5-5-5-----|
Ab--7-7-7-7---5-5-5-5---3-3-3-3-3-3-3-3-----|
Eb--5-5-5-5---3-3-3-3-----------------------|

“You don’t have to think..”
eb-------------------------------------------|
Bb-------------------------------------------|
Gb------------5-5-5-5------------------------|
Db--7-7-7-7---5-5-5-5---5-5-5-5--3-3-3-3-----|
Ab--7-7-7-7---3-3-3-3---5-5-5-5--3-3-3-3-----|
Eb--5-5-5-5-------------3-3-3-3--1-1-1-1-----|

“To make you think…”
eb---------------------------|
Bb---------------------------|
Gb---------------------------|
Db--7-7-7-7---5-5-5-5---3~---|
Ab--7-7-7-7---5-5-5-5---3~---|
Eb--5-5-5-5---3-3-3-3---1~---|

INTRO

LAST PRE-CHORUS
eb---------------------------------------------------------------------|
Bb---------------------------------------------------------------------|
Gb---------------------------------------------------------------------|
Db-2-2-2--3-3-3--7-7-7--5-5-5-5-5-5-5-5--2-2-2--3-3-3--5-5-5-5-5-5-5-5-|
Ab-2-2-2--3-3-3--7-7-7--5-5-5-5-5-5-5-5--2-2-2--3-3-3--5-5-5-5-5-5-5-5-|
Eb-0-0-0--1-1-1--5-5-5--3-3-3-3-3-3-3-3--0-0-0--1-1-1--3-3-3-3-3-3-3-3-|

CHORUS x2

VERSE PART 2 x3

END
eb----------------------------|
Bb----------------------------|
Gb------------------5~--------|
Db--2-2-2---3-3-3---5~--------|
Ab--2-2-2---3-3-3---3~--------|
Eb--0-0-0---1-1-1-------------|
Tap to rate this tab
# A B C D E F G H I J K L M N O P Q R S T U V W X Y Z