Song name
# A B C D E F G H I J K L M N O P Q R S T U V W X Y Z

Jungle Rot - Virus tab

Band:  (Jungle Rot)
Album: (Dead and Buried)
Song:  (Virus)

.  - palm mute           /  - slide up to
\  - slide down to       ~  - vibrato
h  - hammer on           b  - Bend
p  - pull off            Suffixes for bend
t  - tap                 f  - full bend    h - half bend
ph - pinched harmonic    q  - quarter bend t - tap bend
*  - see comment         ^  - Hold bend    r release bend
x  - Stuccatto           ~  - vibrato bend
,  - slight palm mute    () - ghost note, sustained note
"  - tremolo note        <> - Trill


Tunning B F# D A E B


Riff 1
|------------------------------------------------------------|
|------------------------------------------------------------|
|------------------------------------------------------------|
|-------------------4--5--------------------5----------------|
|-4--3--2--3--4--3--2--3--4--3--2--3--4--3--3----------------|
|-2--1--0--1--2--1--------2--1--0--1--2--1-------------------|
        .  .                    .  .
Riff 2
|------------------------------------------------------------|
|------------------------------------------------------------|
|------------------------------------------------------------|
|------------------------------------------------------------|
|------------------------------------------------------------|
|-1-0-2-0-3-0-2-0-1-0-2-0-3-0-4-0-3-0-2-0-1------------------|

Riff 3
|------------------------------------------------------------|
|------------------------------------------------------------|
|------------------------------------------------------------|
|------------------------------------------------------------|
|------------------------------------------------------------|
|-2-1-2-1-2-1-4-3--------------------------------------------|

Riff 4
|------------------------------------------------------------|
|------------------------------------------------------------|
|------------------------------------------------------------|
|------------------------------------------------------------|
|------------------------------------------------------------|
|-2-1-2-1-2-1-2-1--------------------------------------------|


Riff 1 Played 7 times
feedback from Amp
Riff 2 Played 8 times
Riff 3 Played:3 times
Riff 4 played:1 time
Riff 3 played:3 times
Riff 4 played:1 time
Riff 2 played:8 times
Riff 3 played:3 times
Riff 4 played:1 time
Riff 3 played:3 times
Riff 4 played:1 time
Riff 1 played:4 times
Riff 2 played:8 times
Riff 3 played:3 times (WAH Effect)
Riff 4 played:1 time  (WAH Effect)
Riff 3 played:3 times (WAH Effect)
Riff 4 played:1 time  (WAH Effect)
Riff 2 played:8 times

Tap to rate this tab
 
# A B C D E F G H I J K L M N O P Q R S T U V W X Y Z