Song name
# A B C D E F G H I J K L M N O P Q R S T U V W X Y Z

Jungle Rot - Gasping For Air tab

Key:
. palm-mute
. staccato (when in stave)
% rest for whole bar
$ rest for half of bar


Riff A x 4
|------------------|
|------------------|
|------------------|
|------------------|
|---------55-7-5-8-|
|-0000000033-5-3-6-|

Riff B x 12
|------------------|
|------------------|
|------------------|
|------------------|
|-2--2--2--7--5--8-|
|-0--0--0--5--3--6-|
  .  .  .

Riff C x 4
|----------|--------------|
|----------|--------------|
|----------|--------------|
|----------|-----8-7------|
|-2----5---|-8---8-7--5---|
|-0----3---|-6---6-5--3---|

Riff D x 1
|------------------|-----------------|------------------|-------------------|
|------------------|-----------------|------------------|-------------------|
|------------------|-----------------|------------------|-------------------|
|------------------|----------8-7----|------------------|----------8--7-----|
|------------------|----------8-7--5-|------------------|----------8--7--5--|
|-0000000033333333-|-66666666-6-5--3-|-0000000033333333-|-66666666-6--5--3--|

Riff A x 4
Riff B x 12
Riff C x 4
Riff D x 1

Riff E x 4
|---------------|---|---------------|--------------|
|---------------|---|---------------|--------------|
|---------------|---|---------------|--------------|
|------.---.--.-|-%-|------.---.--.-|-$------------|
|-2222-2---2--2-|---|-2222-2---2--2-|------5--4--3-|
|-0000-0---0--0-|---|-0000-0---0--0-|------3--2--1-|
  .... .   .  .       .... .   .  .

Riff C x 4
Riff D x 1
Riff C x 4
Riff D x 1
Riff E x 4
-END-
Tap to rate this tab
 
# A B C D E F G H I J K L M N O P Q R S T U V W X Y Z