Song name
# A B C D E F G H I J K L M N O P Q R S T U V W X Y Z

Jungle Rot - Psychotic Creation tab

Help us improve GuitareTab! Take a short survey!
Song: Psychotic Cremation
Band: Jungle Rot
Album: Dead and buried
Tabbed by: Lord ishamael

Tune down to C#

Riff A:
|-------------|-------|
|-------------|-------|
|-------------|-------|
|-------------|-------|
|-2---3-5-6-5-|-2---3-|
|-0---1-3-4-3-|-0---1-|
      . . . .           

Riff B:
|-----------------|-----------------|
|-----------------|-----------------|
|-----------------|-----------------|
|-----------------|-----------------|
|-3-5-6-5-3-5-6-5-|-3-5-6-5-3-5-6-4-|
|-1-3-4-3-1-3-4-3-|-1-3-4-3-1-3-4-4-|
  . . . . . . . .   . . . . . . .

Now for my two cents. i think j. rot is a fucking cool band, but they need a
new bassist. the guy they have playing is a total dickhead. all he ever does
 is mirror the guitar part. and his tone sucks. no talent whatsoever.

Thats all.
-Lord ishamael
Related for Psychotic Creation tab